  0
SECTION
  2
HEADER
  9
$ACADVER
  1
AC1024
  9
$ACADMAINTVER
 70
   226
  9
$DWGCODEPAGE
  3
ANSI_1252
  9
$LASTSAVEDBY
  1
z230
  9
$INSBASE
 10
0.0
 20
0.0
 30
0.0
  9
$EXTMIN
 10
-31956.7366068447
 20
-3898.570971398251
 30
0.0
  9
$EXTMAX
 10
4890.221107659047
 20
18532.84169078461
 30
0.0
  9
$LIMMIN
 10
0.0
 20
0.0
  9
$LIMMAX
 10
12.0
 20
9.0
  9
$ORTHOMODE
 70
     0
  9
$REGENMODE
 70
     1
  9
$FILLMODE
 70
     1
  9
$QTEXTMODE
 70
     0
  9
$MIRRTEXT
 70
     0
  9
$LTSCALE
 40
1.0
  9
$ATTMODE
 70
     1
  9
$TEXTSIZE
 40
0.2
  9
$TRACEWID
 40
0.05
  9
$TEXTSTYLE
  7
Standard
  9
$CLAYER
  8
0
  9
$CELTYPE
  6
ByLayer
  9
$CECOLOR
 62
   256
  9
$CELTSCALE
 40
1.0
  9
$DISPSILH
 70
     0
  9
$DIMSCALE
 40
1.0
  9
$DIMASZ
 40
0.18
  9
$DIMEXO
 40
0.0625
  9
$DIMDLI
 40
0.38
  9
$DIMRND
 40
0.0
  9
$DIMDLE
 40
0.0
  9
$DIMEXE
 40
0.18
  9
$DIMTP
 40
0.0
  9
$DIMTM
 40
0.0
  9
$DIMTXT
 40
0.18
  9
$DIMCEN
 40
0.09
  9
$DIMTSZ
 40
0.0
  9
$DIMTOL
 70
     0
  9
$DIMLIM
 70
     0
  9
$DIMTIH
 70
     1
  9
$DIMTOH
 70
     1
  9
$DIMSE1
 70
     0
  9
$DIMSE2
 70
     0
  9
$DIMTAD
 70
     0
  9
$DIMZIN
 70
     0
  9
$DIMBLK
  1

  9
$DIMASO
 70
     1
  9
$DIMSHO
 70
     1
  9
$DIMPOST
  1

  9
$DIMAPOST
  1

  9
$DIMALT
 70
     0
  9
$DIMALTD
 70
     2
  9
$DIMALTF
 40
25.4
  9
$DIMLFAC
 40
1.0
  9
$DIMTOFL
 70
     0
  9
$DIMTVP
 40
0.0
  9
$DIMTIX
 70
     0
  9
$DIMSOXD
 70
     0
  9
$DIMSAH
 70
     0
  9
$DIMBLK1
  1

  9
$DIMBLK2
  1

  9
$DIMSTYLE
  2
Standard
  9
$DIMCLRD
 70
     0
  9
$DIMCLRE
 70
     0
  9
$DIMCLRT
 70
     0
  9
$DIMTFAC
 40
1.0
  9
$DIMGAP
 40
0.09
  9
$DIMJUST
 70
     0
  9
$DIMSD1
 70
     0
  9
$DIMSD2
 70
     0
  9
$DIMTOLJ
 70
     1
  9
$DIMTZIN
 70
     0
  9
$DIMALTZ
 70
     0
  9
$DIMALTTZ
 70
     0
  9
$DIMUPT
 70
     0
  9
$DIMDEC
 70
     4
  9
$DIMTDEC
 70
     4
  9
$DIMALTU
 70
     2
  9
$DIMALTTD
 70
     2
  9
$DIMTXSTY
  7
Standard
  9
$DIMAUNIT
 70
     0
  9
$DIMADEC
 70
     0
  9
$DIMALTRND
 40
0.0
  9
$DIMAZIN
 70
     0
  9
$DIMDSEP
 70
    46
  9
$DIMATFIT
 70
     3
  9
$DIMFRAC
 70
     0
  9
$DIMLDRBLK
  1

  9
$DIMLUNIT
 70
     2
  9
$DIMLWD
 70
    -2
  9
$DIMLWE
 70
    -2
  9
$DIMTMOVE
 70
     0
  9
$DIMFXL
 40
1.0
  9
$DIMFXLON
 70
     0
  9
$DIMJOGANG
 40
0.7853981633974483
  9
$DIMTFILL
 70
     0
  9
$DIMTFILLCLR
 70
     0
  9
$DIMARCSYM
 70
     0
  9
$DIMLTYPE
  6

  9
$DIMLTEX1
  6

  9
$DIMLTEX2
  6

  9
$DIMTXTDIRECTION
 70
     0
  9
$LUNITS
 70
     2
  9
$LUPREC
 70
     4
  9
$SKETCHINC
 40
0.1
  9
$FILLETRAD
 40
0.0
  9
$AUNITS
 70
     0
  9
$AUPREC
 70
     0
  9
$MENU
  1
.
  9
$ELEVATION
 40
0.0
  9
$PELEVATION
 40
0.0
  9
$THICKNESS
 40
0.0
  9
$LIMCHECK
 70
     0
  9
$CHAMFERA
 40
0.0
  9
$CHAMFERB
 40
0.0
  9
$CHAMFERC
 40
0.0
  9
$CHAMFERD
 40
0.0
  9
$SKPOLY
 70
     0
  9
$TDCREATE
 40
2459711.532465278
  9
$TDUCREATE
 40
2459711.449131944
  9
$TDUPDATE
 40
2459711.647395833
  9
$TDUUPDATE
 40
2459711.564062500
  9
$TDINDWG
 40
0.0342476852
  9
$TDUSRTIMER
 40
0.0342476852
  9
$USRTIMER
 70
     1
  9
$ANGBASE
 50
0.0
  9
$ANGDIR
 70
     0
  9
$PDMODE
 70
     0
  9
$PDSIZE
 40
0.0
  9
$PLINEWID
 40
0.0
  9
$SPLFRAME
 70
     0
  9
$SPLINETYPE
 70
     6
  9
$SPLINESEGS
 70
     8
  9
$HANDSEED
  5
427
  9
$SURFTAB1
 70
     6
  9
$SURFTAB2
 70
     6
  9
$SURFTYPE
 70
     6
  9
$SURFU
 70
     6
  9
$SURFV
 70
     6
  9
$UCSBASE
  2

  9
$UCSNAME
  2

  9
$UCSORG
 10
0.0
 20
0.0
 30
0.0
  9
$UCSXDIR
 10
1.0
 20
0.0
 30
0.0
  9
$UCSYDIR
 10
0.0
 20
1.0
 30
0.0
  9
$UCSORTHOREF
  2

  9
$UCSORTHOVIEW
 70
     0
  9
$UCSORGTOP
 10
0.0
 20
0.0
 30
0.0
  9
$UCSORGBOTTOM
 10
0.0
 20
0.0
 30
0.0
  9
$UCSORGLEFT
 10
0.0
 20
0.0
 30
0.0
  9
$UCSORGRIGHT
 10
0.0
 20
0.0
 30
0.0
  9
$UCSORGFRONT
 10
0.0
 20
0.0
 30
0.0
  9
$UCSORGBACK
 10
0.0
 20
0.0
 30
0.0
  9
$PUCSBASE
  2

  9
$PUCSNAME
  2

  9
$PUCSORG
 10
0.0
 20
0.0
 30
0.0
  9
$PUCSXDIR
 10
1.0
 20
0.0
 30
0.0
  9
$PUCSYDIR
 10
0.0
 20
1.0
 30
0.0
  9
$PUCSORTHOREF
  2

  9
$PUCSORTHOVIEW
 70
     0
  9
$PUCSORGTOP
 10
0.0
 20
0.0
 30
0.0
  9
$PUCSORGBOTTOM
 10
0.0
 20
0.0
 30
0.0
  9
$PUCSORGLEFT
 10
0.0
 20
0.0
 30
0.0
  9
$PUCSORGRIGHT
 10
0.0
 20
0.0
 30
0.0
  9
$PUCSORGFRONT
 10
0.0
 20
0.0
 30
0.0
  9
$PUCSORGBACK
 10
0.0
 20
0.0
 30
0.0
  9
$USERI1
 70
     0
  9
$USERI2
 70
     0
  9
$USERI3
 70
     0
  9
$USERI4
 70
     0
  9
$USERI5
 70
     0
  9
$USERR1
 40
0.0
  9
$USERR2
 40
0.0
  9
$USERR3
 40
0.0
  9
$USERR4
 40
0.0
  9
$USERR5
 40
0.0
  9
$WORLDVIEW
 70
     1
  9
$SHADEDGE
 70
     3
  9
$SHADEDIF
 70
    70
  9
$TILEMODE
 70
     1
  9
$MAXACTVP
 70
    64
  9
$PINSBASE
 10
0.0
 20
0.0
 30
0.0
  9
$PLIMCHECK
 70
     0
  9
$PEXTMIN
 10
1.000000000000000E+20
 20
1.000000000000000E+20
 30
1.000000000000000E+20
  9
$PEXTMAX
 10
-1.000000000000000E+20
 20
-1.000000000000000E+20
 30
-1.000000000000000E+20
  9
$PLIMMIN
 10
0.0
 20
0.0
  9
$PLIMMAX
 10
12.0
 20
9.0
  9
$UNITMODE
 70
     0
  9
$VISRETAIN
 70
     1
  9
$PLINEGEN
 70
     0
  9
$PSLTSCALE
 70
     1
  9
$TREEDEPTH
 70
  3020
  9
$CMLSTYLE
  2
Standard
  9
$CMLJUST
 70
     0
  9
$CMLSCALE
 40
1.0
  9
$PROXYGRAPHICS
 70
     1
  9
$MEASUREMENT
 70
     1
  9
$CELWEIGHT
370
    -1
  9
$ENDCAPS
280
     0
  9
$JOINSTYLE
280
     0
  9
$LWDISPLAY
290
     0
  9
$INSUNITS
 70
     4
  9
$HYPERLINKBASE
  1

  9
$STYLESHEET
  1

  9
$XEDIT
290
     1
  9
$CEPSNTYPE
380
     0
  9
$PSTYLEMODE
290
     1
  9
$FINGERPRINTGUID
  2
{70CB51BC-BC59-924E-8968-F2FF970F27C4}
  9
$VERSIONGUID
  2
{51F8A3A5-8220-1342-8AEF-C3D7AB25754F}
  9
$EXTNAMES
290
     1
  9
$PSVPSCALE
 40
0.0
  9
$OLESTARTUP
290
     0
  9
$SORTENTS
280
   127
  9
$INDEXCTL
280
     0
  9
$HIDETEXT
280
     1
  9
$XCLIPFRAME
280
     2
  9
$HALOGAP
280
     0
  9
$OBSCOLOR
 70
   257
  9
$OBSLTYPE
280
     0
  9
$INTERSECTIONDISPLAY
280
     0
  9
$INTERSECTIONCOLOR
 70
   257
  9
$DIMASSOC
280
     2
  9
$PROJECTNAME
  1

  9
$CAMERADISPLAY
290
     0
  9
$LENSLENGTH
 40
50.0
  9
$CAMERAHEIGHT
 40
0.0
  9
$STEPSPERSEC
 40
2.0
  9
$STEPSIZE
 40
6.0
  9
$3DDWFPREC
 40
2.0
  9
$PSOLWIDTH
 40
0.25
  9
$PSOLHEIGHT
 40
4.0
  9
$LOFTANG1
 40
1.570796326794896
  9
$LOFTANG2
 40
1.570796326794896
  9
$LOFTMAG1
 40
0.0
  9
$LOFTMAG2
 40
0.0
  9
$LOFTPARAM
 70
     7
  9
$LOFTNORMALS
280
     1
  9
$LATITUDE
 40
37.795
  9
$LONGITUDE
 40
-122.394
  9
$NORTHDIRECTION
 40
0.0
  9
$TIMEZONE
 70
 -8000
  9
$LIGHTGLYPHDISPLAY
280
     1
  9
$TILEMODELIGHTSYNCH
280
     1
  9
$CMATERIAL
347
11
  9
$SOLIDHIST
280
     0
  9
$SHOWHIST
280
     1
  9
$DWFFRAME
280
     2
  9
$DGNFRAME
280
     0
  9
$REALWORLDSCALE
290
     1
  9
$INTERFERECOLOR
 62
     1
  9
$INTERFEREOBJVS
345
33
  9
$INTERFEREVPVS
346
30
  9
$CSHADOW
280
     0
  9
$SHADOWPLANELOCATION
 40
0.0
  0
ENDSEC
  0
SECTION
  2
CLASSES
  0
CLASS
  1
ACDBDICTIONARYWDFLT
  2
AcDbDictionaryWithDefault
  3
ObjectDBX Classes
 90
        0
 91
        1
280
     0
281
     0
  0
CLASS
  1
MATERIAL
  2
AcDbMaterial
  3
ObjectDBX Classes
 90
     1153
 91
        3
280
     0
281
     0
  0
CLASS
  1
VISUALSTYLE
  2
AcDbVisualStyle
  3
ObjectDBX Classes
 90
     4095
 91
       24
280
     0
281
     0
  0
CLASS
  1
SCALE
  2
AcDbScale
  3
ObjectDBX Classes
 90
     1153
 91
       17
280
     0
281
     0
  0
CLASS
  1
TABLESTYLE
  2
AcDbTableStyle
  3
ObjectDBX Classes
 90
     4095
 91
        1
280
     0
281
     0
  0
CLASS
  1
MLEADERSTYLE
  2
AcDbMLeaderStyle
  3
ACDB_MLEADERSTYLE_CLASS
 90
     4095
 91
        1
280
     0
281
     0
  0
CLASS
  1
ACDBSECTIONVIEWSTYLE
  2
AcDbSectionViewStyle
  3
ObjectDBX Classes
 90
     1025
 91
        2
280
     0
281
     0
  0
CLASS
  1
ACDBDETAILVIEWSTYLE
  2
AcDbDetailViewStyle
  3
ObjectDBX Classes
 90
     1025
 91
        2
280
     0
281
     0
  0
CLASS
  1
RASTERVARIABLES
  2
AcDbRasterVariables
  3
ISM
 90
        0
 91
        1
280
     0
281
     0
  0
CLASS
  1
DICTIONARYVAR
  2
AcDbDictionaryVar
  3
ObjectDBX Classes
 90
        0
 91
       10
280
     0
281
     0
  0
CLASS
  1
CELLSTYLEMAP
  2
AcDbCellStyleMap
  3
ObjectDBX Classes
 90
     1152
 91
        3
280
     0
281
     0
  0
CLASS
  1
SORTENTSTABLE
  2
AcDbSortentsTable
  3
ObjectDBX Classes
 90
        0
 91
        1
280
     0
281
     0
  0
ENDSEC
  0
SECTION
  2
TABLES
  0
TABLE
  2
VPORT
  5
8
330
0
100
AcDbSymbolTable
 70
     1
  0
VPORT
  5
57
330
8
100
AcDbSymbolTableRecord
100
AcDbViewportTableRecord
  2
*Active
 70
     0
 10
0.0
 20
0.0
 11
1.0
 21
1.0
 12
-1545.773486660393
 22
564.9658430336349
 13
0.0
 23
0.0
 14
1.0
 24
1.0
 15
0.0
 25
0.0
 16
0.0
 26
0.0
 36
1.0
 17
0.0
 27
0.0
 37
0.0
 40
45463.41302447291
 41
2.325609756097561
 42
50.0
 43
0.0
 44
0.0
 50
0.0
 51
0.0
 71
     0
 72
  1000
 73
     1
 74
     1
 75
     0
 76
     0
 77
     0
 78
     0
281
     0
 65
     1
110
0.0
120
0.0
130
0.0
111
1.0
121
0.0
131
0.0
112
0.0
122
1.0
132
0.0
 79
     0
146
0.0
348
2F
 60
     3
 61
     5
292
     1
282
     1
141
0.0
142
0.0
 63
   250
421
  3355443
1001
ACAD_NAV_VCDISPLAY
1070
     3
  0
ENDTAB
  0
TABLE
  2
LTYPE
  5
5
330
0
100
AcDbSymbolTable
 70
     2
  0
LTYPE
  5
5B
330
5
100
AcDbSymbolTableRecord
100
AcDbLinetypeTableRecord
  2
ByBlock
 70
     0
  3

 72
    65
 73
     0
 40
0.0
  0
LTYPE
  5
5C
330
5
100
AcDbSymbolTableRecord
100
AcDbLinetypeTableRecord
  2
ByLayer
 70
     0
  3

 72
    65
 73
     0
 40
0.0
  0
LTYPE
  5
5D
330
5
100
AcDbSymbolTableRecord
100
AcDbLinetypeTableRecord
  2
Continuous
 70
     0
  3
Solid line
 72
    65
 73
     0
 40
0.0
  0
ENDTAB
  0
TABLE
  2
LAYER
  5
2
330
0
100
AcDbSymbolTable
 70
     8
  0
LAYER
  5
54
330
2
100
AcDbSymbolTableRecord
100
AcDbLayerTableRecord
  2
0
 70
     0
 62
     7
  6
Continuous
370
    -3
390
F
347
21
  0
LAYER
  5
BA
330
2
100
AcDbSymbolTableRecord
100
AcDbLayerTableRecord
  2
A-FLOR
 70
     0
 62
     3
  6
Continuous
370
     9
390
F
347
21
  0
LAYER
  5
BB
330
2
100
AcDbSymbolTableRecord
100
AcDbLayerTableRecord
  2
A-WALL
 70
     0
 62
   113
  6
Continuous
370
     9
390
F
347
21
  0
LAYER
  5
BC
330
2
100
AcDbSymbolTableRecord
100
AcDbLayerTableRecord
  2
S-BEAM
 70
     0
 62
    12
  6
Continuous
370
     9
390
F
347
21
  0
LAYER
  5
BD
330
2
100
AcDbSymbolTableRecord
100
AcDbLayerTableRecord
  2
A-COLS
 70
     0
 62
    52
  6
Continuous
370
     9
390
F
347
21
  0
LAYER
  5
BF
330
2
100
AcDbSymbolTableRecord
100
AcDbLayerTableRecord
  2
A-ROOF
 70
     0
 62
   132
  6
Continuous
370
     9
390
F
347
21
  0
LAYER
  5
C4
330
2
100
AcDbSymbolTableRecord
100
AcDbLayerTableRecord
  2
A-WALL-PATT
 70
     0
 62
   111
  6
Continuous
370
    30
390
F
347
21
  0
LAYER
  5
17C
330
2
100
AcDbSymbolTableRecord
100
AcDbLayerTableRecord
  2
A-ROOF-PATT
 70
     0
 62
   132
  6
Continuous
370
    30
390
F
347
21
  0
ENDTAB
  0
TABLE
  2
STYLE
  5
3
330
0
100
AcDbSymbolTable
 70
     2
  0
STYLE
  5
55
330
3
100
AcDbSymbolTableRecord
100
AcDbTextStyleTableRecord
  2
Standard
 70
     0
 40
0.0
 41
1.0
 50
0.0
 71
     0
 42
0.2
  3
txt
  4

  0
STYLE
  5
5A
330
3
100
AcDbSymbolTableRecord
100
AcDbTextStyleTableRecord
  2
Annotative
 70
     0
 40
0.0
 41
1.0
 50
0.0
 71
     0
 42
0.2
  3
txt
  4

1001
AcadAnnotative
1000
AnnotativeData
1002
{
1070
     1
1070
     1
1002
}
  0
ENDTAB
  0
TABLE
  2
VIEW
  5
6
330
0
100
AcDbSymbolTable
 70
     0
  0
ENDTAB
  0
TABLE
  2
UCS
  5
7
330
0
100
AcDbSymbolTable
 70
     0
  0
ENDTAB
  0
TABLE
  2
APPID
  5
9
330
0
100
AcDbSymbolTable
 70
     5
  0
APPID
  5
56
330
9
100
AcDbSymbolTableRecord
100
AcDbRegAppTableRecord
  2
ACAD
 70
     0
  0
APPID
  5
5E
330
9
100
AcDbSymbolTableRecord
100
AcDbRegAppTableRecord
  2
AcadAnnotative
 70
     0
  0
APPID
  5
78
330
9
100
AcDbSymbolTableRecord
100
AcDbRegAppTableRecord
  2
REVIT
 70
     0
  0
APPID
  5
31D
330
9
100
AcDbSymbolTableRecord
100
AcDbRegAppTableRecord
  2
ACAD_EXEMPT_FROM_CAD_STANDARDS
 70
     0
  0
APPID
  5
342
330
9
100
AcDbSymbolTableRecord
100
AcDbRegAppTableRecord
  2
ACAD_NAV_VCDISPLAY
 70
     0
  0
ENDTAB
  0
TABLE
  2
DIMSTYLE
  5
A
330
0
100
AcDbSymbolTable
 70
     3
100
AcDbDimStyleTable
 71
     1
340
58
  0
DIMSTYLE
105
58
330
A
100
AcDbSymbolTableRecord
100
AcDbDimStyleTableRecord
  2
Standard
 70
     0
340
55
  0
DIMSTYLE
105
59
330
A
100
AcDbSymbolTableRecord
100
AcDbDimStyleTableRecord
  2
Annotative
 70
     0
340
55
1001
AcadAnnotative
1000
AnnotativeData
1002
{
1070
     1
1070
     1
1002
}
  0
ENDTAB
  0
TABLE
  2
BLOCK_RECORD
  5
1
330
0
100
AcDbSymbolTable
 70
    10
  0
BLOCK_RECORD
  5
70
102
{ACAD_XDICTIONARY
360
2DB
102
}
330
1
100
AcDbSymbolTableRecord
100
AcDbBlockTableRecord
  2
*Model_Space
340
73
 70
     0
280
     1
281
     0
  0
BLOCK_RECORD
  5
6C
330
1
100
AcDbSymbolTableRecord
100
AcDbBlockTableRecord
  2
*Paper_Space
340
6F
 70
     0
280
     1
281
     0
  0
BLOCK_RECORD
  5
74
330
1
100
AcDbSymbolTableRecord
100
AcDbBlockTableRecord
  2
*Paper_Space0
340
77
 70
     0
280
     1
281
     0
  0
BLOCK_RECORD
  5
D1
330
1
100
AcDbSymbolTableRecord
100
AcDbBlockTableRecord
  2
Telaio strutturale 5 - Telaio strutturale 1-885710-F0_CAVALLERIZZA_DXF_ZZ_Sezione
340
0
102
{BLKREFS
331
F6
102
}
 70
     0
280
     1
281
     0
  0
BLOCK_RECORD
  5
F7
330
1
100
AcDbSymbolTableRecord
100
AcDbBlockTableRecord
  2
Telaio strutturale 10 - Telaio strutturale 2-890677-F0_CAVALLERIZZA_DXF_ZZ_Sezione
340
0
102
{BLKREFS
331
112
102
}
 70
     0
280
     1
281
     0
  0
BLOCK_RECORD
  5
113
330
1
100
AcDbSymbolTableRecord
100
AcDbBlockTableRecord
  2
Telaio strutturale 17 - Telaio strutturale 17-908847-F0_CAVALLERIZZA_DXF_ZZ_Sezione
340
0
102
{BLKREFS
331
11A
102
}
 70
     0
280
     1
281
     0
  0
BLOCK_RECORD
  5
1E9
330
1
100
AcDbSymbolTableRecord
100
AcDbBlockTableRecord
  2
Muri 32 - Muri 32-1359853-F0_CAVALLERIZZA_DXF_ZZ_Sezione
340
0
 70
     0
280
     1
281
     0
  0
BLOCK_RECORD
  5
229
330
1
100
AcDbSymbolTableRecord
100
AcDbBlockTableRecord
  2
Muri 41 - Muri 33-1363658-F0_CAVALLERIZZA_DXF_ZZ_Sezione
340
0
 70
     0
280
     1
281
     0
  0
BLOCK_RECORD
  5
2A9
330
1
100
AcDbSymbolTableRecord
100
AcDbBlockTableRecord
  2
Muri 52 - Muri 52-1655002-F0_CAVALLERIZZA_DXF_ZZ_Sezione
340
0
 70
     0
280
     1
281
     0
  0
BLOCK_RECORD
  5
2B7
330
1
100
AcDbSymbolTableRecord
100
AcDbBlockTableRecord
  2
Muri 18 - Muri 18-1657618-F0_CAVALLERIZZA_DXF_ZZ_Sezione
340
0
 70
     0
280
     1
281
     0
  0
BLOCK_RECORD
  5
2CB
330
1
100
AcDbSymbolTableRecord
100
AcDbBlockTableRecord
  2
Muri 19 - Muri 19-1658488-F0_CAVALLERIZZA_DXF_ZZ_Sezione
340
0
 70
     0
280
     1
281
     0
  0
ENDTAB
  0
ENDSEC
  0
SECTION
  2
BLOCKS
  0
BLOCK
  5
71
330
70
100
AcDbEntity
  8
0
100
AcDbBlockBegin
  2
*Model_Space
 70
     0
 10
0.0
 20
0.0
 30
0.0
  3
*Model_Space
  1

  0
ENDBLK
  5
72
330
70
100
AcDbEntity
  8
0
100
AcDbBlockEnd
  0
BLOCK
  5
6D
330
6C
100
AcDbEntity
 67
     1
  8
0
100
AcDbBlockBegin
  2
*Paper_Space
 70
     0
 10
0.0
 20
0.0
 30
0.0
  3
*Paper_Space
  1

  0
ENDBLK
  5
6E
330
6C
100
AcDbEntity
 67
     1
  8
0
100
AcDbBlockEnd
  0
BLOCK
  5
75
330
74
100
AcDbEntity
 67
     1
  8
0
100
AcDbBlockBegin
  2
*Paper_Space0
 70
     0
 10
0.0
 20
0.0
 30
0.0
  3
*Paper_Space0
  1

  0
ENDBLK
  5
76
330
74
100
AcDbEntity
 67
     1
  8
0
100
AcDbBlockEnd
  0
BLOCK
  5
F4
330
D1
100
AcDbEntity
  8
0
100
AcDbBlockBegin
  2
Telaio strutturale 5 - Telaio strutturale 1-885710-F0_CAVALLERIZZA_DXF_ZZ_Sezione
 70
     0
 10
0.0
 20
0.0
 30
0.0
  3
Telaio strutturale 5 - Telaio strutturale 1-885710-F0_CAVALLERIZZA_DXF_ZZ_Sezione
  1

  0
LINE
  5
D2
330
D1
100
AcDbEntity
  8
S-BEAM
370
    30
100
AcDbLine
 10
-21044.05400720926
 20
6335.698619706523
 30
0.0
 11
-3329.025753318517
 21
6271.963594295289
 31
0.0
1001
REVIT
1002
{
1070
     1
1000
885712
1002
}
1002
{
1070
     5
1000
885710
1002
}
  0
LINE
  5
D3
330
D1
100
AcDbEntity
  8
S-BEAM
370
    30
100
AcDbLine
 10
-3329.025753318517
 20
6271.963594295289
 30
0.0
 11
-3329.025753318513
 21
6743.864768486003
 31
0.0
1001
REVIT
1002
{
1070
     1
1000
885712
1002
}
1002
{
1070
     5
1000
885710
1002
}
  0
LINE
  5
D4
330
D1
100
AcDbEntity
  8
S-BEAM
370
    30
100
AcDbLine
 10
-3329.025753318513
 20
6743.864768486003
 30
0.0
 11
-6979.245416167315
 21
8528.332784456488
 31
0.0
1001
REVIT
1002
{
1070
     1
1000
885712
1002
}
1002
{
1070
     5
1000
885710
1002
}
  0
LINE
  5
D5
330
D1
100
AcDbEntity
  8
S-BEAM
370
    30
100
AcDbLine
 10
-6979.245416167315
 20
8528.332784456488
 30
0.0
 11
-12990.57714144828
 21
11706.99459229685
 31
0.0
1001
REVIT
1002
{
1070
     1
1000
885712
1002
}
1002
{
1070
     5
1000
885710
1002
}
  0
LINE
  5
D6
330
D1
100
AcDbEntity
  8
S-BEAM
370
    30
100
AcDbLine
 10
-12990.57714144828
 20
11706.99459229685
 30
0.0
 11
-12990.57714144828
 21
11866.99459229686
 31
0.0
1001
REVIT
1002
{
1070
     1
1000
885712
1002
}
1002
{
1070
     5
1000
885710
1002
}
  0
LINE
  5
D7
330
D1
100
AcDbEntity
  8
S-BEAM
370
    30
100
AcDbLine
 10
-12990.57714144828
 20
11866.99459229686
 30
0.0
 11
-13294.80444265243
 21
11866.99459229686
 31
0.0
1001
REVIT
1002
{
1070
     1
1000
885712
1002
}
1002
{
1070
     5
1000
885710
1002
}
  0
LINE
  5
D8
330
D1
100
AcDbEntity
  8
S-BEAM
370
    30
100
AcDbLine
 10
-13294.80444265243
 20
11866.99459229686
 30
0.0
 11
-13294.80444265243
 21
11706.99459229685
 31
0.0
1001
REVIT
1002
{
1070
     1
1000
885712
1002
}
1002
{
1070
     5
1000
885710
1002
}
  0
LINE
  5
D9
330
D1
100
AcDbEntity
  8
S-BEAM
370
    30
100
AcDbLine
 10
-13294.80444265243
 20
11706.99459229685
 30
0.0
 11
-22803.5730861283
 21
6706.118678352511
 31
0.0
1001
REVIT
1002
{
1070
     1
1000
885712
1002
}
1002
{
1070
     5
1000
885710
1002
}
  0
LINE
  5
DA
330
D1
100
AcDbEntity
  8
S-BEAM
370
    30
100
AcDbLine
 10
-22803.5730861283
 20
6706.118678352511
 30
0.0
 11
-22803.57308612831
 21
6074.246242617703
 31
0.0
1001
REVIT
1002
{
1070
     1
1000
885712
1002
}
1002
{
1070
     5
1000
885710
1002
}
  0
LINE
  5
DB
330
D1
100
AcDbEntity
  8
S-BEAM
370
    30
100
AcDbLine
 10
-22803.57308612831
 20
6074.246242617703
 30
0.0
 11
-21926.83544311973
 21
6074.246242617707
 31
0.0
1001
REVIT
1002
{
1070
     1
1000
885712
1002
}
1002
{
1070
     5
1000
885710
1002
}
  0
ARC
  5
DC
330
D1
100
AcDbEntity
  8
S-BEAM
370
    30
100
AcDbCircle
 10
-22026.79996319348
 20
6310.602660464898
 30
0.0
 40
256.6266968402398
100
AcDbArc
 50
292.9254330217619
 51
321.1781556441391
1001
REVIT
1002
{
1070
     1
1000
885712
1002
}
1002
{
1070
     5
1000
885710
1002
}
  0
ARC
  5
DD
330
D1
100
AcDbEntity
  8
S-BEAM
370
    30
100
AcDbCircle
 10
-21587.45147052584
 20
6030.548375976629
 30
0.0
 40
267.4326095546145
100
AcDbArc
 50
108.463362319083
 51
153.5366376809209
1001
REVIT
1002
{
1070
     1
1000
885712
1002
}
1002
{
1070
     5
1000
885710
1002
}
  0
LINE
  5
DE
330
D1
100
AcDbEntity
  8
S-BEAM
370
    30
100
AcDbLine
 10
-21672.1468933186
 20
6284.215255980997
 30
0.0
 11
-21672.1468933186
 21
6337.95836863173
 31
0.0
1001
REVIT
1002
{
1070
     1
1000
885712
1002
}
1002
{
1070
     5
1000
885710
1002
}
  0
LINE
  5
DF
330
D1
100
AcDbEntity
  8
S-BEAM
370
    30
100
AcDbLine
 10
-21672.1468933186
 20
6337.95836863173
 30
0.0
 11
-21044.05400720926
 21
6335.698619706523
 31
0.0
1001
REVIT
1002
{
1070
     1
1000
885712
1002
}
1002
{
1070
     5
1000
885710
1002
}
  0
LINE
  5
E0
330
D1
100
AcDbEntity
  8
S-BEAM
370
    30
100
AcDbLine
 10
-4547.021700825495
 20
6603.122496913002
 30
0.0
 11
-6372.974275010292
 21
6603.122496912638
 31
0.0
1001
REVIT
1002
{
1070
     1
1000
885712
1002
}
1002
{
1070
     5
1000
885710
1002
}
  0
LINE
  5
E1
330
D1
100
AcDbEntity
  8
S-BEAM
370
    30
100
AcDbLine
 10
-6372.974275010292
 20
6603.122496912638
 30
0.0
 11
-21127.87737160092
 21
6638.986343233995
 31
0.0
1001
REVIT
1002
{
1070
     1
1000
885712
1002
}
1002
{
1070
     5
1000
885710
1002
}
  0
LINE
  5
E2
330
D1
100
AcDbEntity
  8
S-BEAM
370
    30
100
AcDbLine
 10
-21127.87737160092
 20
6638.986343233995
 30
0.0
 11
-21726.60848264479
 21
6680.464216399268
 31
0.0
1001
REVIT
1002
{
1070
     1
1000
885712
1002
}
1002
{
1070
     5
1000
885710
1002
}
  0
ARC
  5
E3
330
D1
100
AcDbEntity
  8
S-BEAM
370
    30
100
AcDbCircle
 10
-92577.87092579297
 20
149847.5630670936
 30
0.0
 40
159739.5366936827
100
AcDbArc
 50
296.3301215787531
 51
298.4677254554006
1001
REVIT
1002
{
1070
     1
1000
885712
1002
}
1002
{
1070
     5
1000
885710
1002
}
  0
LINE
  5
E4
330
D1
100
AcDbEntity
  8
S-BEAM
370
    30
100
AcDbLine
 10
-16435.84039898182
 20
9422.811793087422
 30
0.0
 11
-16435.84039898181
 21
6782.811793087403
 31
0.0
1001
REVIT
1002
{
1070
     1
1000
885712
1002
}
1002
{
1070
     5
1000
885710
1002
}
  0
LINE
  5
E5
330
D1
100
AcDbEntity
  8
S-BEAM
370
    30
100
AcDbLine
 10
-16435.84039898181
 20
6782.811793087403
 30
0.0
 11
-16155.84039898181
 21
6782.811793087403
 31
0.0
1001
REVIT
1002
{
1070
     1
1000
885712
1002
}
1002
{
1070
     5
1000
885710
1002
}
  0
LINE
  5
E6
330
D1
100
AcDbEntity
  8
S-BEAM
370
    30
100
AcDbLine
 10
-16155.84039898181
 20
6782.811793087403
 30
0.0
 11
-16155.84039898181
 21
9485.624230150357
 31
0.0
1001
REVIT
1002
{
1070
     1
1000
885712
1002
}
1002
{
1070
     5
1000
885710
1002
}
  0
LINE
  5
E7
330
D1
100
AcDbEntity
  8
S-BEAM
370
    30
100
AcDbLine
 10
-16155.84039898181
 20
9485.624230150357
 30
0.0
 11
-10112.65295043617
 21
9458.049636403016
 31
0.0
1001
REVIT
1002
{
1070
     1
1000
885712
1002
}
1002
{
1070
     5
1000
885710
1002
}
  0
LINE
  5
E8
330
D1
100
AcDbEntity
  8
S-BEAM
370
    30
100
AcDbLine
 10
-10112.65295043617
 20
9458.049636403016
 30
0.0
 11
-10112.65295043617
 21
6718.049636403016
 31
0.0
1001
REVIT
1002
{
1070
     1
1000
885712
1002
}
1002
{
1070
     5
1000
885710
1002
}
  0
LINE
  5
E9
330
D1
100
AcDbEntity
  8
S-BEAM
370
    30
100
AcDbLine
 10
-10112.65295043617
 20
6718.049636403016
 30
0.0
 11
-9832.652950436171
 21
6718.049636403016
 31
0.0
1001
REVIT
1002
{
1070
     1
1000
885712
1002
}
1002
{
1070
     5
1000
885710
1002
}
  0
LINE
  5
EA
330
D1
100
AcDbEntity
  8
S-BEAM
370
    30
100
AcDbLine
 10
-9832.652950436171
 20
6718.049636403016
 30
0.0
 11
-9832.652950436177
 21
9398.049636403014
 31
0.0
1001
REVIT
1002
{
1070
     1
1000
885712
1002
}
1002
{
1070
     5
1000
885710
1002
}
  0
LINE
  5
EB
330
D1
100
AcDbEntity
  8
S-BEAM
370
    30
100
AcDbLine
 10
-9832.652950436177
 20
9398.049636403014
 30
0.0
 11
-4547.021700825495
 21
6603.122496913002
 31
0.0
1001
REVIT
1002
{
1070
     1
1000
885712
1002
}
1002
{
1070
     5
1000
885710
1002
}
  0
LINE
  5
EC
330
D1
100
AcDbEntity
  8
S-BEAM
370
    30
100
AcDbLine
 10
-10112.65295043617
 20
9701.68196138411
 30
0.0
 11
-16166.27375571914
 21
9723.096536838156
 31
0.0
1001
REVIT
1002
{
1070
     1
1000
885712
1002
}
1002
{
1070
     5
1000
885710
1002
}
  0
LINE
  5
ED
330
D1
100
AcDbEntity
  8
S-BEAM
370
    30
100
AcDbLine
 10
-16166.27375571914
 20
9723.096536838156
 30
0.0
 11
-16166.27375571914
 21
9893.096536838161
 31
0.0
1001
REVIT
1002
{
1070
     1
1000
885712
1002
}
1002
{
1070
     5
1000
885710
1002
}
  0
LINE
  5
EE
330
D1
100
AcDbEntity
  8
S-BEAM
370
    30
100
AcDbLine
 10
-16166.27375571914
 20
9893.096536838161
 30
0.0
 11
-13313.64853508515
 21
11393.3564855505
 31
0.0
1001
REVIT
1002
{
1070
     1
1000
885712
1002
}
1002
{
1070
     5
1000
885710
1002
}
  0
LINE
  5
EF
330
D1
100
AcDbEntity
  8
S-BEAM
370
    30
100
AcDbLine
 10
-13313.64853508515
 20
11393.3564855505
 30
0.0
 11
-13319.57401497033
 21
9815.478885459988
 31
0.0
1001
REVIT
1002
{
1070
     1
1000
885712
1002
}
1002
{
1070
     5
1000
885710
1002
}
  0
LINE
  5
F0
330
D1
100
AcDbEntity
  8
S-BEAM
370
    30
100
AcDbLine
 10
-13319.57401497033
 20
9815.478885459988
 30
0.0
 11
-12976.87571365851
 21
9825.816829703901
 31
0.0
1001
REVIT
1002
{
1070
     1
1000
885712
1002
}
1002
{
1070
     5
1000
885710
1002
}
  0
LINE
  5
F1
330
D1
100
AcDbEntity
  8
S-BEAM
370
    30
100
AcDbLine
 10
-12976.87571365851
 20
9825.816829703901
 30
0.0
 11
-12976.87571365852
 21
11365.8168297039
 31
0.0
1001
REVIT
1002
{
1070
     1
1000
885712
1002
}
1002
{
1070
     5
1000
885710
1002
}
  0
LINE
  5
F2
330
D1
100
AcDbEntity
  8
S-BEAM
370
    30
100
AcDbLine
 10
-12976.87571365852
 20
11365.8168297039
 30
0.0
 11
-10112.65295043617
 21
9851.277968321015
 31
0.0
1001
REVIT
1002
{
1070
     1
1000
885712
1002
}
1002
{
1070
     5
1000
885710
1002
}
  0
LINE
  5
F3
330
D1
100
AcDbEntity
  8
S-BEAM
370
    30
100
AcDbLine
 10
-10112.65295043617
 20
9851.277968321015
 30
0.0
 11
-10112.65295043617
 21
9701.68196138411
 31
0.0
1001
REVIT
1002
{
1070
     1
1000
885712
1002
}
1002
{
1070
     5
1000
885710
1002
}
  0
ENDBLK
  5
F5
330
D1
100
AcDbEntity
  8
0
100
AcDbBlockEnd
  0
BLOCK
  5
110
330
F7
100
AcDbEntity
  8
0
100
AcDbBlockBegin
  2
Telaio strutturale 10 - Telaio strutturale 2-890677-F0_CAVALLERIZZA_DXF_ZZ_Sezione
 70
     0
 10
0.0
 20
0.0
 30
0.0
  3
Telaio strutturale 10 - Telaio strutturale 2-890677-F0_CAVALLERIZZA_DXF_ZZ_Sezione
  1

  0
LINE
  5
F8
330
F7
100
AcDbEntity
  8
S-BEAM
370
    30
100
AcDbLine
 10
-16435.84039898181
 20
7224.546163981653
 30
0.0
 11
-17829.0281786303
 21
8679.290522292452
 31
0.0
1001
REVIT
1002
{
1070
     1
1000
890679
1002
}
1002
{
1070
     5
1000
890677
1002
}
  0
LINE
  5
F9
330
F7
100
AcDbEntity
  8
S-BEAM
370
    30
100
AcDbLine
 10
-17829.0281786303
 20
8679.290522292452
 30
0.0
 11
-17950.07763304542
 21
8620.19650280488
 31
0.0
1001
REVIT
1002
{
1070
     1
1000
890679
1002
}
1002
{
1070
     5
1000
890677
1002
}
  0
LINE
  5
FA
330
F7
100
AcDbEntity
  8
S-BEAM
370
    30
100
AcDbLine
 10
-17950.07763304542
 20
8620.19650280488
 30
0.0
 11
-16435.84039898181
 21
7039.05424360851
 31
0.0
1001
REVIT
1002
{
1070
     1
1000
890679
1002
}
1002
{
1070
     5
1000
890677
1002
}
  0
LINE
  5
FB
330
F7
100
AcDbEntity
  8
S-BEAM
370
    30
100
AcDbLine
 10
-16435.84039898181
 20
7039.05424360851
 30
0.0
 11
-16435.84039898181
 21
7224.546163981653
 31
0.0
1001
REVIT
1002
{
1070
     1
1000
890679
1002
}
1002
{
1070
     5
1000
890677
1002
}
  0
LINE
  5
FC
330
F7
100
AcDbEntity
  8
S-BEAM
370
    30
100
AcDbLine
 10
-16155.84039898181
 20
7237.79997559142
 30
0.0
 11
-16155.84039898181
 21
6979.73999419323
 31
0.0
1001
REVIT
1002
{
1070
     1
1000
890679
1002
}
1002
{
1070
     5
1000
890677
1002
}
  0
LINE
  5
FD
330
F7
100
AcDbEntity
  8
S-BEAM
370
    30
100
AcDbLine
 10
-16155.84039898181
 20
6979.73999419323
 30
0.0
 11
-14584.27454128141
 21
9478.453297518818
 31
0.0
1001
REVIT
1002
{
1070
     1
1000
890679
1002
}
1002
{
1070
     5
1000
890677
1002
}
  0
LINE
  5
FE
330
F7
100
AcDbEntity
  8
S-BEAM
370
    30
100
AcDbLine
 10
-14584.27454128141
 20
9478.453297518818
 30
0.0
 11
-14722.15054475593
 21
9479.082414986327
 31
0.0
1001
REVIT
1002
{
1070
     1
1000
890679
1002
}
1002
{
1070
     5
1000
890677
1002
}
  0
LINE
  5
FF
330
F7
100
AcDbEntity
  8
S-BEAM
370
    30
100
AcDbLine
 10
-14722.15054475593
 20
9479.082414986327
 30
0.0
 11
-16155.84039898181
 21
7237.79997559142
 31
0.0
1001
REVIT
1002
{
1070
     1
1000
890679
1002
}
1002
{
1070
     5
1000
890677
1002
}
  0
LINE
  5
100
330
F7
100
AcDbEntity
  8
S-BEAM
370
    30
100
AcDbLine
 10
-11713.29898461929
 20
9466.197697357927
 30
0.0
 11
-10112.65295043617
 21
7001.418949850595
 31
0.0
1001
REVIT
1002
{
1070
     1
1000
890679
1002
}
1002
{
1070
     5
1000
890677
1002
}
  0
LINE
  5
101
330
F7
100
AcDbEntity
  8
S-BEAM
370
    30
100
AcDbLine
 10
-10112.65295043617
 20
7001.418949850595
 30
0.0
 11
-10112.65295043617
 21
7208.960645394757
 31
0.0
1001
REVIT
1002
{
1070
     1
1000
890679
1002
}
1002
{
1070
     5
1000
890677
1002
}
  0
LINE
  5
102
330
F7
100
AcDbEntity
  8
S-BEAM
370
    30
100
AcDbLine
 10
-10112.65295043617
 20
7208.960645394757
 30
0.0
 11
-11585.01187217727
 21
9466.197697357932
 31
0.0
1001
REVIT
1002
{
1070
     1
1000
890679
1002
}
1002
{
1070
     5
1000
890677
1002
}
  0
LINE
  5
103
330
F7
100
AcDbEntity
  8
S-BEAM
370
    30
100
AcDbLine
 10
-11585.01187217727
 20
9466.197697357932
 30
0.0
 11
-11713.29898461929
 21
9466.197697357927
 31
0.0
1001
REVIT
1002
{
1070
     1
1000
890679
1002
}
1002
{
1070
     5
1000
890677
1002
}
  0
LINE
  5
104
330
F7
100
AcDbEntity
  8
S-BEAM
370
    30
100
AcDbLine
 10
-9832.652950436171
 20
7204.820633689571
 30
0.0
 11
-9832.652950436171
 21
7024.752493768542
 31
0.0
1001
REVIT
1002
{
1070
     1
1000
890679
1002
}
1002
{
1070
     5
1000
890677
1002
}
  0
LINE
  5
105
330
F7
100
AcDbEntity
  8
S-BEAM
370
    30
100
AcDbLine
 10
-9832.652950436171
 20
7024.752493768542
 30
0.0
 11
-8256.948388295514
 21
8564.851246925972
 31
0.0
1001
REVIT
1002
{
1070
     1
1000
890679
1002
}
1002
{
1070
     5
1000
890677
1002
}
  0
LINE
  5
106
330
F7
100
AcDbEntity
  8
S-BEAM
370
    30
100
AcDbLine
 10
-8256.948388295514
 20
8564.851246925972
 30
0.0
 11
-8369.770643488489
 21
8624.509207931202
 31
0.0
1001
REVIT
1002
{
1070
     1
1000
890679
1002
}
1002
{
1070
     5
1000
890677
1002
}
  0
LINE
  5
107
330
F7
100
AcDbEntity
  8
S-BEAM
370
    30
100
AcDbLine
 10
-8369.770643488489
 20
8624.509207931202
 30
0.0
 11
-9832.652950436171
 21
7204.820633689571
 31
0.0
1001
REVIT
1002
{
1070
     1
1000
890679
1002
}
1002
{
1070
     5
1000
890677
1002
}
  0
LINE
  5
108
330
F7
100
AcDbEntity
  8
S-BEAM
370
    30
100
AcDbLine
 10
-14360.57447504782
 20
10842.75451876114
 30
0.0
 11
-13316.19632826155
 21
9886.089026279417
 31
0.0
1001
REVIT
1002
{
1070
     1
1000
890679
1002
}
1002
{
1070
     5
1000
890677
1002
}
  0
LINE
  5
109
330
F7
100
AcDbEntity
  8
S-BEAM
370
    30
100
AcDbLine
 10
-13316.19632826155
 20
9886.089026279417
 30
0.0
 11
-13316.19632826155
 21
10021.66732243275
 31
0.0
1001
REVIT
1002
{
1070
     1
1000
890679
1002
}
1002
{
1070
     5
1000
890677
1002
}
  0
LINE
  5
10A
330
F7
100
AcDbEntity
  8
S-BEAM
370
    30
100
AcDbLine
 10
-13316.19632826155
 20
10021.66732243275
 30
0.0
 11
-14266.54935893313
 21
10892.20444820141
 31
0.0
1001
REVIT
1002
{
1070
     1
1000
890679
1002
}
1002
{
1070
     5
1000
890677
1002
}
  0
LINE
  5
10B
330
F7
100
AcDbEntity
  8
S-BEAM
370
    30
100
AcDbLine
 10
-14266.54935893313
 20
10892.20444820141
 30
0.0
 11
-14360.57447504782
 21
10842.75451876114
 31
0.0
1001
REVIT
1002
{
1070
     1
1000
890679
1002
}
1002
{
1070
     5
1000
890677
1002
}
  0
LINE
  5
10C
330
F7
100
AcDbEntity
  8
S-BEAM
370
    30
100
AcDbLine
 10
-12976.87571365851
 20
10112.7916106634
 30
0.0
 11
-12976.87571365851
 21
9973.678635787797
 31
0.0
1001
REVIT
1002
{
1070
     1
1000
890679
1002
}
1002
{
1070
     5
1000
890677
1002
}
  0
LINE
  5
10D
330
F7
100
AcDbEntity
  8
S-BEAM
370
    30
100
AcDbLine
 10
-12976.87571365851
 20
9973.678635787797
 30
0.0
 11
-11918.73310642411
 21
10800.39024561439
 31
0.0
1001
REVIT
1002
{
1070
     1
1000
890679
1002
}
1002
{
1070
     5
1000
890677
1002
}
  0
LINE
  5
10E
330
F7
100
AcDbEntity
  8
S-BEAM
370
    30
100
AcDbLine
 10
-11918.73310642411
 20
10800.39024561439
 30
0.0
 11
-12024.92103466187
 21
10856.5401184493
 31
0.0
1001
REVIT
1002
{
1070
     1
1000
890679
1002
}
1002
{
1070
     5
1000
890677
1002
}
  0
LINE
  5
10F
330
F7
100
AcDbEntity
  8
S-BEAM
370
    30
100
AcDbLine
 10
-12024.92103466187
 20
10856.5401184493
 30
0.0
 11
-12976.87571365851
 21
10112.7916106634
 31
0.0
1001
REVIT
1002
{
1070
     1
1000
890679
1002
}
1002
{
1070
     5
1000
890677
1002
}
  0
ENDBLK
  5
111
330
F7
100
AcDbEntity
  8
0
100
AcDbBlockEnd
  0
BLOCK
  5
118
330
113
100
AcDbEntity
  8
0
100
AcDbBlockBegin
  2
Telaio strutturale 17 - Telaio strutturale 17-908847-F0_CAVALLERIZZA_DXF_ZZ_Sezione
 70
     0
 10
0.0
 20
0.0
 30
0.0
  3
Telaio strutturale 17 - Telaio strutturale 17-908847-F0_CAVALLERIZZA_DXF_ZZ_Sezione
  1

  0
LWPOLYLINE
  5
114
330
113
100
AcDbEntity
  8
S-BEAM
370
    30
100
AcDbPolyline
 90
        4
 70
   128
 43
0.0
 10
-13237.97826398989
 20
11856.20928394722
 10
-13164.58828269396
 20
11856.32814144084
 10
-13091.19829890767
 20
11856.4453669394
 10
-13017.8083193304
 20
11856.56094284216
1001
REVIT
1002
{
1070
     1
1000
908849
1002
}
1002
{
1070
     5
1000
908847
1002
}
  0
LINE
  5
115
330
113
100
AcDbEntity
  8
S-BEAM
370
    30
100
AcDbLine
 10
-13017.8083193304
 20
11856.56094284216
 30
0.0
 11
-13017.8083193304
 21
12076.72926162725
 31
0.0
1001
REVIT
1002
{
1070
     1
1000
908849
1002
}
1002
{
1070
     5
1000
908847
1002
}
  0
LWPOLYLINE
  5
116
330
113
100
AcDbEntity
  8
S-BEAM
370
    30
100
AcDbPolyline
 90
        4
 70
   128
 43
0.0
 10
-13017.8083193304
 20
12076.72926162725
 10
-13091.19830148614
 20
12076.6184416657
 10
-13164.58828133213
 20
12076.50599257742
 10
-13237.9782639899
 20
12076.39193179321
1001
REVIT
1002
{
1070
     1
1000
908849
1002
}
1002
{
1070
     5
1000
908847
1002
}
  0
LINE
  5
117
330
113
100
AcDbEntity
  8
S-BEAM
370
    30
100
AcDbLine
 10
-13237.9782639899
 20
12076.39193179321
 30
0.0
 11
-13237.97826398989
 21
11856.20928394722
 31
0.0
1001
REVIT
1002
{
1070
     1
1000
908849
1002
}
1002
{
1070
     5
1000
908847
1002
}
  0
ENDBLK
  5
119
330
113
100
AcDbEntity
  8
0
100
AcDbBlockEnd
  0
BLOCK
  5
226
330
1E9
100
AcDbEntity
  8
0
100
AcDbBlockBegin
  2
Muri 32 - Muri 32-1359853-F0_CAVALLERIZZA_DXF_ZZ_Sezione
 70
     0
 10
0.0
 20
0.0
 30
0.0
  3
Muri 32 - Muri 32-1359853-F0_CAVALLERIZZA_DXF_ZZ_Sezione
  1

  0
HATCH
  5
209
330
1E9
100
AcDbEntity
  8
A-WALL-PATT
370
     9
100
AcDbHatch
 10
0.0
 20
0.0
 30
0.0
210
0.0
220
0.0
230
1.0
  2
FP_1
 70
     0
 71
     0
 91
        1
 92
        1
 93
       31
 72
     1
 10
-23023.88574726704
 20
6093.206316846901
 11
-23023.88574726704
 21
7031.314724292745
 72
     1
 10
-23023.88574726704
 20
7031.314724292745
 11
-23512.24455413959
 21
6803.594552314264
 72
     1
 10
-23512.24455413959
 20
6803.594552314264
 11
-23512.2445541396
 21
6574.177208668633
 72
     1
 10
-23512.2445541396
 20
6574.177208668633
 11
-23504.57432295831
 21
6572.426569042267
 72
     1
 10
-23504.57432295831
 20
6572.426569042267
 11
-23498.42327513169
 21
6567.521385811351
 72
     1
 10
-23498.42327513169
 20
6567.521385811351
 11
-23495.00970111946
 21
6560.43319067289
 72
     1
 10
-23495.00970111946
 20
6560.43319067289
 11
-23494.56647476082
 21
6556.499539138977
 72
     1
 10
-23494.56647476082
 20
6556.499539138977
 11
-23494.56647476081
 21
6519.141641696258
 72
     1
 10
-23494.56647476081
 20
6519.141641696258
 11
-23492.58580619897
 21
6510.463966913907
 72
     1
 10
-23492.58580619897
 20
6510.463966913907
 11
-23487.03609621346
 21
6503.505012046893
 72
     1
 10
-23487.03609621346
 20
6503.505012046893
 11
-23479.01653292963
 21
6499.643083452615
 72
     1
 10
-23479.01653292963
 20
6499.643083452615
 11
-23474.56601106947
 21
6499.141641696254
 72
     1
 10
-23474.56601106947
 20
6499.141641696254
 11
-23455.46016609025
 21
6499.141641696254
 72
     1
 10
-23455.46016609025
 20
6499.141641696254
 11
-23448.02072302541
 21
6495.932653602782
 72
     1
 10
-23448.02072302541
 20
6495.932653602782
 11
-23442.8128184927
 21
6489.726258558609
 72
     1
 10
-23442.8128184927
 20
6489.726258558609
 11
-23440.94435460127
 21
6481.842772271649
 72
     1
 10
-23440.94435460127
 20
6481.842772271649
 11
-23440.9443546013
 21
6431.84277227164
 72
     1
 10
-23440.9443546013
 20
6431.84277227164
 11
-23437.25926389361
 21
6424.190779976918
 72
     1
 10
-23437.25926389361
 20
6424.190779976918
 11
-23433.33478414119
 21
6422.300893952321
 72
     1
 10
-23433.33478414119
 20
6422.300893952321
 11
-23428.72179343389
 21
6420.909676959631
 72
     1
 10
-23428.72179343389
 20
6420.909676959631
 11
-23425.06634323975
 21
6417.017108122703
 72
     1
 10
-23425.06634323975
 20
6417.017108122703
 11
-23423.73835063202
 21
6411.845038314549
 72
     1
 10
-23423.73835063202
 20
6411.845038314549
 11
-23423.73835063199
 21
6366.845038314561
 72
     1
 10
-23423.73835063199
 20
6366.845038314561
 11
-23419.32354630338
 21
6359.819080369224
 72
     1
 10
-23419.32354630338
 20
6359.819080369224
 11
-23408.83193524394
 21
6355.428683773967
 72
     1
 10
-23408.83193524394
 20
6355.428683773967
 11
-23407.25881673499
 21
6351.641397933569
 72
     1
 10
-23407.25881673499
 20
6351.641397933569
 11
-23407.57499159071
 21
6347.552613367211
 72
     1
 10
-23407.57499159071
 20
6347.552613367211
 11
-23408.4363376629
 21
6345.676061071296
 72
     1
 10
-23408.4363376629
 20
6345.676061071296
 11
-23408.4363376629
 21
6093.206316846901
 72
     1
 10
-23408.4363376629
 20
6093.206316846901
 11
-23157.71272716415
 21
6093.206316846901
 72
     1
 10
-23157.71272716415
 20
6093.206316846901
 11
-23023.88574726704
 21
6093.206316846901
 97
        0
 75
     0
 76
     2
 52
0.0
 41
1.0
 77
     0
 78
     1
 53
45.0
 43
-17420.153
 44
27711.02
 45
-212.1320343559643
 46
212.1320343559643
 79
     0
 98
        1
 10
0.0
 20
0.0
1001
REVIT
1002
{
1070
     1
1000
1359855
1002
}
1002
{
1070
     5
1000
1359853
1002
}
1002
{
1070
     3
1000
-2000588
1002
}
  0
LINE
  5
20A
330
1E9
100
AcDbEntity
  8
A-WALL
100
AcDbLine
 10
-23457.25229224486
 20
6359.046813319624
 30
0.0
 11
-23415.93994483858
 21
6359.046813319624
 31
0.0
1001
REVIT
1002
{
1070
     1
1000
1359855
1002
}
1002
{
1070
     5
1000
1359853
1002
}
  0
LINE
  5
20B
330
1E9
100
AcDbEntity
  8
A-WALL
100
AcDbLine
 10
-23474.16228448801
 20
6422.055506772219
 30
0.0
 11
-23431.15686218837
 21
6422.055506772219
 31
0.0
1001
REVIT
1002
{
1070
     1
1000
1359855
1002
}
1002
{
1070
     5
1000
1359853
1002
}
  0
LINE
  5
20C
330
1E9
100
AcDbEntity
  8
A-WALL
100
AcDbLine
 10
-23495.32145248739
 20
6499.141641696255
 30
0.0
 11
-23474.56601106946
 21
6499.141641696255
 31
0.0
1001
REVIT
1002
{
1070
     1
1000
1359855
1002
}
1002
{
1070
     5
1000
1359853
1002
}
  0
LINE
  5
20D
330
1E9
100
AcDbEntity
  8
A-WALL
370
    30
100
AcDbLine
 10
-23408.4363376629
 20
6345.676039123534
 30
0.0
 11
-23408.4363376629
 21
6093.206316846931
 31
0.0
1001
REVIT
1002
{
1070
     1
1000
1359855
1002
}
1002
{
1070
     5
1000
1359853
1002
}
  0
LINE
  5
20E
330
1E9
100
AcDbEntity
  8
A-WALL
370
    30
100
AcDbLine
 10
-23408.4363376629
 20
6093.206316846931
 30
0.0
 11
-23023.88574726704
 21
6093.206316846931
 31
0.0
1001
REVIT
1002
{
1070
     1
1000
1359855
1002
}
1002
{
1070
     5
1000
1359853
1002
}
  0
LINE
  5
20F
330
1E9
100
AcDbEntity
  8
A-WALL
370
    30
100
AcDbLine
 10
-23023.88574726704
 20
6093.206316846931
 30
0.0
 11
-23023.88574726704
 21
7031.314724292774
 31
0.0
1001
REVIT
1002
{
1070
     1
1000
1359855
1002
}
1002
{
1070
     5
1000
1359853
1002
}
  0
LINE
  5
210
330
1E9
100
AcDbEntity
  8
A-WALL
370
    30
100
AcDbLine
 10
-23023.88574726704
 20
7031.314724292774
 30
0.0
 11
-23512.24455413958
 21
6803.594552314288
 31
0.0
1001
REVIT
1002
{
1070
     1
1000
1359855
1002
}
1002
{
1070
     5
1000
1359853
1002
}
  0
LINE
  5
211
330
1E9
100
AcDbEntity
  8
A-WALL
370
    30
100
AcDbLine
 10
-23512.24455413958
 20
6803.594552314288
 30
0.0
 11
-23512.24455413958
 21
6782.092696426025
 31
0.0
1001
REVIT
1002
{
1070
     1
1000
1359855
1002
}
1002
{
1070
     5
1000
1359853
1002
}
  0
LINE
  5
212
330
1E9
100
AcDbEntity
  8
A-WALL
370
    30
100
AcDbLine
 10
-23512.24455413958
 20
6782.092695702774
 30
0.0
 11
-23512.24455413958
 21
6574.177208668661
 31
0.0
1001
REVIT
1002
{
1070
     1
1000
1359855
1002
}
1002
{
1070
     5
1000
1359853
1002
}
  0
LWPOLYLINE
  5
213
330
1E9
100
AcDbEntity
  8
A-WALL
370
    30
100
AcDbPolyline
 90
        7
 70
   128
 43
0.0
 10
-23512.2445541396
 20
6574.177208668661
 10
-23508.31081140567
 20
6573.733992585797
 10
-23504.5743229583
 20
6572.426569042294
 10
-23501.22245193047
 20
6570.320497713956
 10
-23498.42327513168
 20
6567.521385811376
 10
-23496.31715497499
 20
6564.169592493415
 10
-23495.00970111945
 20
6560.433190672917
1001
REVIT
1002
{
1070
     1
1000
1359855
1002
}
1002
{
1070
     5
1000
1359853
1002
}
  0
LINE
  5
214
330
1E9
100
AcDbEntity
  8
A-WALL
370
    30
100
AcDbLine
 10
-23485.43266758296
 20
6502.352500967102
 30
0.0
 11
-23483.24388703994
 21
6501.122264338237
 31
0.0
1001
REVIT
1002
{
1070
     1
1000
1359855
1002
}
1002
{
1070
     5
1000
1359853
1002
}
  0
LINE
  5
215
330
1E9
100
AcDbEntity
  8
A-WALL
370
    30
100
AcDbLine
 10
-23483.24308463159
 20
6501.12187795054
 30
0.0
 11
-23479.01653292962
 21
6499.643083452642
 31
0.0
1001
REVIT
1002
{
1070
     1
1000
1359855
1002
}
1002
{
1070
     5
1000
1359853
1002
}
  0
LINE
  5
216
330
1E9
100
AcDbEntity
  8
A-WALL
370
    30
100
AcDbLine
 10
-23474.56601106946
 20
6499.141641696279
 30
0.0
 11
-23455.46016609024
 21
6499.141641696279
 31
0.0
1001
REVIT
1002
{
1070
     1
1000
1359855
1002
}
1002
{
1070
     5
1000
1359853
1002
}
  0
LINE
  5
217
330
1E9
100
AcDbEntity
  8
A-WALL
370
    30
100
AcDbLine
 10
-23455.46016609024
 20
6499.141641696279
 30
0.0
 11
-23451.55290175229
 21
6497.971910662302
 31
0.0
1001
REVIT
1002
{
1070
     1
1000
1359855
1002
}
1002
{
1070
     5
1000
1359853
1002
}
  0
LWPOLYLINE
  5
218
330
1E9
100
AcDbEntity
  8
A-WALL
370
    30
100
AcDbPolyline
 90
        5
 70
   128
 43
0.0
 10
-23448.0207230254
 20
6495.93265360281
 10
-23445.05405057905
 20
6493.133807393725
 10
-23442.81281849269
 20
6489.726258558635
 10
-23441.41785216822
 20
6485.893708937249
 10
-23440.94435460126
 20
6481.842772271679
1001
REVIT
1002
{
1070
     1
1000
1359855
1002
}
1002
{
1070
     5
1000
1359853
1002
}
  0
LINE
  5
219
330
1E9
100
AcDbEntity
  8
A-WALL
370
    30
100
AcDbLine
 10
-23440.94435460126
 20
6481.842772271679
 30
0.0
 11
-23440.9443546013
 21
6431.842772271666
 31
0.0
1001
REVIT
1002
{
1070
     1
1000
1359855
1002
}
1002
{
1070
     5
1000
1359853
1002
}
  0
LWPOLYLINE
  5
21A
330
1E9
100
AcDbEntity
  8
A-WALL
370
    30
100
AcDbPolyline
 90
        4
 70
   128
 43
0.0
 10
-23440.9443546013
 20
6431.842772271666
 10
-23440.698961732
 20
6429.664900811856
 10
-23439.97508814725
 20
6427.596236921043
 10
-23438.80903189121
 20
6425.740512044696
1001
REVIT
1002
{
1070
     1
1000
1359855
1002
}
1002
{
1070
     5
1000
1359853
1002
}
  0
LINE
  5
21B
330
1E9
100
AcDbEntity
  8
A-WALL
370
    30
100
AcDbLine
 10
-23433.33478414118
 20
6422.300893952346
 30
0.0
 11
-23431.15686218836
 21
6422.055506772247
 31
0.0
1001
REVIT
1002
{
1070
     1
1000
1359855
1002
}
1002
{
1070
     5
1000
1359853
1002
}
  0
LWPOLYLINE
  5
21C
330
1E9
100
AcDbEntity
  8
A-WALL
370
    30
100
AcDbPolyline
 90
        4
 70
   128
 43
0.0
 10
-23431.15686218836
 20
6422.055506772247
 10
-23428.72179343388
 20
6420.909676959658
 10
-23426.6481897355
 20
6419.194282563593
 10
-23425.06634323974
 20
6417.017108122731
1001
REVIT
1002
{
1070
     1
1000
1359855
1002
}
1002
{
1070
     5
1000
1359853
1002
}
  0
LINE
  5
21D
330
1E9
100
AcDbEntity
  8
A-WALL
370
    30
100
AcDbLine
 10
-23424.47362308765
 20
6415.747001066979
 30
0.0
 11
-23424.0756471796
 21
6414.514953514284
 31
0.0
1001
REVIT
1002
{
1070
     1
1000
1359855
1002
}
1002
{
1070
     5
1000
1359853
1002
}
  0
LINE
  5
21E
330
1E9
100
AcDbEntity
  8
A-WALL
370
    30
100
AcDbLine
 10
-23423.73835063201
 20
6411.845038314575
 30
0.0
 11
-23423.73835063198
 21
6366.845095825191
 31
0.0
1001
REVIT
1002
{
1070
     1
1000
1359855
1002
}
1002
{
1070
     5
1000
1359853
1002
}
  0
LINE
  5
21F
330
1E9
100
AcDbEntity
  8
A-WALL
370
    30
100
AcDbLine
 10
-23423.54282049878
 20
6365.109735752423
 30
0.0
 11
-23422.96609588359
 21
6363.461578017768
 31
0.0
1001
REVIT
1002
{
1070
     1
1000
1359855
1002
}
1002
{
1070
     5
1000
1359853
1002
}
  0
LWPOLYLINE
  5
220
330
1E9
100
AcDbEntity
  8
A-WALL
370
    30
100
AcDbPolyline
 90
        3
 70
   128
 43
0.0
 10
-23422.96606567769
 20
6363.461515295306
 10
-23422.03698400093
 20
6361.982924557647
 10
-23420.80226685067
 20
6360.748216687637
1001
REVIT
1002
{
1070
     1
1000
1359855
1002
}
1002
{
1070
     5
1000
1359853
1002
}
  0
LINE
  5
221
330
1E9
100
AcDbEntity
  8
A-WALL
370
    30
100
AcDbLine
 10
-23420.80217132152
 20
6360.748140506179
 30
0.0
 11
-23419.32354630337
 21
6359.819080369252
 31
0.0
1001
REVIT
1002
{
1070
     1
1000
1359855
1002
}
1002
{
1070
     5
1000
1359853
1002
}
  0
LINE
  5
222
330
1E9
100
AcDbEntity
  8
A-WALL
370
    30
100
AcDbLine
 10
-23417.67525337909
 20
6359.242331101553
 30
0.0
 11
-23415.93994483858
 21
6359.04681331965
 31
0.0
1001
REVIT
1002
{
1070
     1
1000
1359855
1002
}
1002
{
1070
     5
1000
1359853
1002
}
  0
LWPOLYLINE
  5
223
330
1E9
100
AcDbEntity
  8
A-WALL
370
    30
100
AcDbPolyline
 90
        4
 70
   128
 43
0.0
 10
-23415.93994483857
 20
6359.04681331965
 10
-23413.8894021674
 20
6358.804324369504
 10
-23411.95198581089
 20
6358.090235383208
 10
-23410.23458102213
 20
6356.943941910286
1001
REVIT
1002
{
1070
     1
1000
1359855
1002
}
1002
{
1070
     5
1000
1359853
1002
}
  0
LWPOLYLINE
  5
224
330
1E9
100
AcDbEntity
  8
A-WALL
370
    30
100
AcDbPolyline
 90
        6
 70
   128
 43
0.0
 10
-23408.83193524393
 20
6355.428683773993
 10
-23407.82143099065
 20
6353.628056195798
 10
-23407.25881673498
 20
6351.641397933597
 10
-23407.17513132251
 20
6349.578310865396
 10
-23407.57499159071
 20
6347.552613367238
 10
-23408.4363376629
 20
6345.676061071324
1001
REVIT
1002
{
1070
     1
1000
1359855
1002
}
1002
{
1070
     5
1000
1359853
1002
}
  0
LINE
  5
225
330
1E9
100
AcDbEntity
  8
A-WALL
100
AcDbLine
 10
-23458.39497428539
 20
6422.055506772249
 30
0.0
 11
-23431.15686218837
 21
6422.055506772249
 31
0.0
1001
REVIT
1002
{
1070
     1
1000
1359855
1002
}
1002
{
1070
     5
1000
1359853
1002
}
  0
ENDBLK
  5
227
330
1E9
100
AcDbEntity
  8
0
100
AcDbBlockEnd
  0
BLOCK
  5
26B
330
229
100
AcDbEntity
  8
0
100
AcDbBlockBegin
  2
Muri 41 - Muri 33-1363658-F0_CAVALLERIZZA_DXF_ZZ_Sezione
 70
     0
 10
0.0
 20
0.0
 30
0.0
  3
Muri 41 - Muri 33-1363658-F0_CAVALLERIZZA_DXF_ZZ_Sezione
  1

  0
HATCH
  5
241
330
229
100
AcDbEntity
  8
A-WALL-PATT
370
     9
100
AcDbHatch
 10
0.0
 20
0.0
 30
0.0
210
0.0
220
0.0
230
1.0
  2
FP_1
 70
     0
 71
     0
 91
        1
 92
        1
 93
       23
 72
     1
 10
-23490.66472194608
 20
6325.579254928515
 11
-23490.66472194608
 21
6786.525044142177
 72
     1
 10
-23490.66472194608
 20
6786.525044142177
 11
-23637.82642129815
 21
6786.525044142177
 72
     1
 10
-23637.82642129815
 20
6786.525044142177
 11
-23637.82642129815
 21
6546.52504414217
 72
     1
 10
-23637.82642129815
 20
6546.52504414217
 11
-23617.00283889885
 21
6535.34360761373
 72
     1
 10
-23617.00283889885
 20
6535.34360761373
 11
-23594.39979349978
 21
6528.433323352757
 72
     1
 10
-23594.39979349978
 20
6528.433323352757
 11
-23570.8835363749
 21
6526.059024811516
 72
     1
 10
-23570.8835363749
 20
6526.059024811516
 11
-23570.8835363749
 21
6496.059024811784
 72
     1
 10
-23570.8835363749
 20
6496.059024811784
 11
-23565.02600539497
 21
6484.484704684899
 72
     1
 10
-23565.02600539497
 20
6484.484704684899
 11
-23556.87148316069
 21
6474.396056853009
 72
     1
 10
-23556.87148316069
 20
6474.396056853009
 11
-23546.78260142792
 21
6466.241723673352
 72
     1
 10
-23546.78260142792
 20
6466.241723673352
 11
-23535.20801295549
 21
6460.384328494511
 72
     1
 10
-23535.20801295549
 20
6460.384328494511
 11
-23535.20801295549
 21
6455.384328494474
 72
     1
 10
-23535.20801295549
 20
6455.384328494474
 11
-23530.20789703265
 21
6455.384328494236
 72
     1
 10
-23530.20789703265
 20
6455.384328494236
 11
-23530.20789703258
 21
6397.581758841321
 72
     1
 10
-23530.20789703258
 20
6397.581758841321
 11
-23526.54666759112
 21
6390.291820660555
 72
     1
 10
-23526.54666759112
 20
6390.291820660555
 11
-23522.69758761893
 21
6388.631528123344
 72
     1
 10
-23522.69758761893
 20
6388.631528123344
 11
-23508.28435801797
 21
6384.942188580954
 72
     1
 10
-23508.28435801797
 20
6384.942188580954
 11
-23505.34117984466
 21
6381.251645448619
 72
     1
 10
-23505.34117984466
 20
6381.251645448619
 11
-23504.29077171614
 21
6374.73751216137
 72
     1
 10
-23504.29077171614
 20
6374.73751216137
 11
-23504.29077171614
 21
6341.649613435934
 72
     1
 10
-23504.29077171614
 20
6341.649613435934
 11
-23501.26245917028
 21
6332.728699179547
 72
     1
 10
-23501.26245917028
 20
6332.728699179547
 11
-23499.05598706176
 21
6330.423841782248
 72
     1
 10
-23499.05598706176
 20
6330.423841782248
 11
-23490.66472194608
 21
6325.579254928515
 97
        0
 75
     0
 76
     2
 52
0.0
 41
1.0
 77
     0
 78
     1
 53
45.0
 43
-17420.153
 44
27711.02
 45
-212.1320343559643
 46
212.1320343559643
 79
     0
 98
        1
 10
0.0
 20
0.0
1001
REVIT
1002
{
1070
     1
1000
1363660
1002
}
1002
{
1070
     5
1000
1363658
1002
}
1002
{
1070
     3
1000
-2000588
1002
}
  0
LINE
  5
242
330
229
100
AcDbEntity
  8
A-WALL
370
    30
100
AcDbLine
 10
-23490.66472194607
 20
6786.525044142205
 30
0.0
 11
-23503.07696109468
 21
6786.525044142205
 31
0.0
1001
REVIT
1002
{
1070
     1
1000
1363660
1002
}
1002
{
1070
     5
1000
1363658
1002
}
  0
LINE
  5
243
330
229
100
AcDbEntity
  8
A-WALL
370
    30
100
AcDbLine
 10
-23503.07696256596
 20
6786.525044142205
 30
0.0
 11
-23637.82642129814
 21
6786.525044142205
 31
0.0
1001
REVIT
1002
{
1070
     1
1000
1363660
1002
}
1002
{
1070
     5
1000
1363658
1002
}
  0
LINE
  5
244
330
229
100
AcDbEntity
  8
A-WALL
370
    30
100
AcDbLine
 10
-23637.82642129814
 20
6786.525044142205
 30
0.0
 11
-23637.82642129814
 21
6721.376367865379
 31
0.0
1001
REVIT
1002
{
1070
     1
1000
1363660
1002
}
1002
{
1070
     5
1000
1363658
1002
}
  0
LINE
  5
245
330
229
100
AcDbEntity
  8
A-WALL
370
    30
100
AcDbLine
 10
-23637.82642129814
 20
6721.376366978872
 30
0.0
 11
-23637.82642129814
 21
6546.525044142203
 31
0.0
1001
REVIT
1002
{
1070
     1
1000
1363660
1002
}
1002
{
1070
     5
1000
1363658
1002
}
  0
LWPOLYLINE
  5
246
330
229
100
AcDbEntity
  8
A-WALL
370
    30
100
AcDbPolyline
 90
        4
 70
   128
 43
0.0
 10
-23637.82642129814
 20
6546.525044142199
 10
-23617.00283889885
 20
6535.34360761376
 10
-23594.39979349978
 20
6528.433323352787
 10
-23570.8835363749
 20
6526.059024811544
1001
REVIT
1002
{
1070
     1
1000
1363660
1002
}
1002
{
1070
     5
1000
1363658
1002
}
  0
LINE
  5
247
330
229
100
AcDbEntity
  8
A-WALL
370
    30
100
AcDbLine
 10
-23570.8835363749
 20
6526.059024811544
 30
0.0
 11
-23570.8835363749
 21
6496.059024811811
 31
0.0
1001
REVIT
1002
{
1070
     1
1000
1363660
1002
}
1002
{
1070
     5
1000
1363658
1002
}
  0
LWPOLYLINE
  5
248
330
229
100
AcDbEntity
  8
A-WALL
370
    30
100
AcDbPolyline
 90
        5
 70
   128
 43
0.0
 10
-23570.8835363749
 20
6496.059024811811
 10
-23565.02600539497
 20
6484.484704684927
 10
-23556.87148316069
 20
6474.396056853037
 10
-23546.78260142792
 20
6466.24172367338
 10
-23535.20801295547
 20
6460.384328494541
1001
REVIT
1002
{
1070
     1
1000
1363660
1002
}
1002
{
1070
     5
1000
1363658
1002
}
  0
LINE
  5
249
330
229
100
AcDbEntity
  8
A-WALL
370
    30
100
AcDbLine
 10
-23535.20801295547
 20
6460.384328494541
 30
0.0
 11
-23535.20801295547
 21
6455.384328494503
 31
0.0
1001
REVIT
1002
{
1070
     1
1000
1363660
1002
}
1002
{
1070
     5
1000
1363658
1002
}
  0
LINE
  5
24A
330
229
100
AcDbEntity
  8
A-WALL
370
    30
100
AcDbLine
 10
-23535.20801295547
 20
6455.384328494503
 30
0.0
 11
-23530.20789703265
 21
6455.384328494265
 31
0.0
1001
REVIT
1002
{
1070
     1
1000
1363660
1002
}
1002
{
1070
     5
1000
1363658
1002
}
  0
LINE
  5
24B
330
229
100
AcDbEntity
  8
A-WALL
370
    30
100
AcDbLine
 10
-23530.20789703265
 20
6455.384328494265
 30
0.0
 11
-23530.20789703268
 21
6397.581758841349
 31
0.0
1001
REVIT
1002
{
1070
     1
1000
1363660
1002
}
1002
{
1070
     5
1000
1363658
1002
}
  0
LWPOLYLINE
  5
24C
330
229
100
AcDbEntity
  8
A-WALL
370
    30
100
AcDbPolyline
 90
        7
 70
   128
 43
0.0
 10
-23530.20789703258
 20
6397.581758841349
 10
-23529.96291498407
 20
6395.485852057454
 10
-23529.24117588416
 20
6393.502936150782
 10
-23528.08158887456
 20
6391.739910631121
 10
-23526.54666759111
 20
6390.291820660582
 10
-23524.71916003749
 20
6389.236733144297
 10
-23522.69758761893
 20
6388.631528123372
1001
REVIT
1002
{
1070
     1
1000
1363660
1002
}
1002
{
1070
     5
1000
1363658
1002
}
  0
LINE
  5
24D
330
229
100
AcDbEntity
  8
A-WALL
370
    30
100
AcDbLine
 10
-23522.69758761893
 20
6388.631528123372
 30
0.0
 11
-23514.89761934351
 21
6387.256215153762
 31
0.0
1001
REVIT
1002
{
1070
     1
1000
1363660
1002
}
1002
{
1070
     5
1000
1363658
1002
}
  0
LWPOLYLINE
  5
24E
330
229
100
AcDbEntity
  8
A-WALL
370
    30
100
AcDbPolyline
 90
        8
 70
   128
 43
0.0
 10
-23514.89761934351
 20
6387.256215153762
 10
-23512.53737370313
 20
6386.990285504063
 10
-23510.2954806347
 20
6386.205831377976
 10
-23508.28435801797
 20
6384.942188580982
 10
-23506.60485193869
 20
6383.262721439429
 10
-23505.34117984466
 20
6381.251645448648
 10
-23504.55670753132
 20
6379.009804356332
 10
-23504.29077171613
 20
6376.64961343597
1001
REVIT
1002
{
1070
     1
1000
1363660
1002
}
1002
{
1070
     5
1000
1363658
1002
}
  0
LINE
  5
24F
330
229
100
AcDbEntity
  8
A-WALL
370
    30
100
AcDbLine
 10
-23504.29077171613
 20
6376.64961343597
 30
0.0
 11
-23504.29077171623
 21
6341.649613435962
 31
0.0
1001
REVIT
1002
{
1070
     1
1000
1363660
1002
}
1002
{
1070
     5
1000
1363658
1002
}
  0
LWPOLYLINE
  5
250
330
229
100
AcDbEntity
  8
A-WALL
370
    30
100
AcDbPolyline
 90
        5
 70
   128
 43
0.0
 10
-23504.29077171613
 20
6341.649613435962
 10
-23503.94340051194
 20
6338.477863148206
 10
-23502.91775506846
 20
6335.456479152934
 10
-23501.26245917028
 20
6332.728699179576
 10
-23499.05598706176
 20
6330.423841782277
1001
REVIT
1002
{
1070
     1
1000
1363660
1002
}
1002
{
1070
     5
1000
1363658
1002
}
  0
LINE
  5
251
330
229
100
AcDbEntity
  8
A-WALL
370
    30
100
AcDbLine
 10
-23499.05598706176
 20
6330.423841782277
 30
0.0
 11
-23490.66472194607
 21
6325.579254928542
 31
0.0
1001
REVIT
1002
{
1070
     1
1000
1363660
1002
}
1002
{
1070
     5
1000
1363658
1002
}
  0
LINE
  5
252
330
229
100
AcDbEntity
  8
A-WALL
370
    30
100
AcDbLine
 10
-23490.66472194607
 20
6325.579254928542
 30
0.0
 11
-23490.66472194607
 21
6507.406573700212
 31
0.0
1001
REVIT
1002
{
1070
     1
1000
1363660
1002
}
1002
{
1070
     5
1000
1363658
1002
}
  0
LINE
  5
253
330
229
100
AcDbEntity
  8
A-WALL
370
    30
100
AcDbLine
 10
-23490.66472194607
 20
6507.406577358631
 30
0.0
 11
-23490.66472194607
 21
6786.525044142205
 31
0.0
1001
REVIT
1002
{
1070
     1
1000
1363660
1002
}
1002
{
1070
     5
1000
1363658
1002
}
  0
LINE
  5
254
330
229
100
AcDbEntity
  8
A-WALL
100
AcDbLine
 10
-23477.41660026394
 20
6499.462818514925
 30
0.0
 11
-23477.41660026394
 21
6325.579254928542
 31
0.0
1001
REVIT
1002
{
1070
     1
1000
1363660
1002
}
1002
{
1070
     5
1000
1363658
1002
}
  0
LINE
  5
255
330
229
100
AcDbEntity
  8
A-WALL
100
AcDbLine
 10
-23641.03091465426
 20
6546.525044142203
 30
0.0
 11
-23641.03091465426
 21
6718.223912769717
 31
0.0
1001
REVIT
1002
{
1070
     1
1000
1363660
1002
}
1002
{
1070
     5
1000
1363658
1002
}
  0
LINE
  5
256
330
229
100
AcDbEntity
  8
A-WALL
100
AcDbLine
 10
-23490.66472194608
 20
6325.579254928542
 30
0.0
 11
-23477.41660026394
 21
6325.579254928542
 31
0.0
1001
REVIT
1002
{
1070
     1
1000
1363660
1002
}
1002
{
1070
     5
1000
1363658
1002
}
  0
LINE
  5
257
330
229
100
AcDbEntity
  8
A-WALL
100
AcDbLine
 10
-23492.87398357464
 20
6325.579254928545
 30
0.0
 11
-23501.32199751366
 21
6330.423841782277
 31
0.0
1001
REVIT
1002
{
1070
     1
1000
1363660
1002
}
1002
{
1070
     5
1000
1363658
1002
}
  0
SPLINE
  5
258
330
229
100
AcDbEntity
  8
A-WALL
100
AcDbSpline
210
0.0
220
0.0
230
1.0
 70
     8
 71
     3
 72
    11
 73
     7
 74
     0
 42
0.000000001
 43
0.0000000001
 40
0.0
 40
0.0
 40
0.0
 40
0.0
 40
0.25
 40
0.5
 40
0.75
 40
1.0
 40
1.0
 40
1.0
 40
1.0
 10
-23501.32199751366
 20
6330.423841782277
 30
0.0
 10
-23502.15487146116
 20
6331.108850123651
 30
0.0
 10
-23503.63161083978
 20
6332.657647162308
 30
0.0
 10
-23505.31740477211
 20
6335.407154823909
 30
0.0
 10
-23506.35806241914
 20
6338.452608459669
 30
0.0
 10
-23506.58943963642
 20
6340.583929637656
 30
0.0
 10
-23506.59218420401
 20
6341.649613435962
 30
0.0
1001
REVIT
1002
{
1070
     1
1000
1363660
1002
}
1002
{
1070
     5
1000
1363658
1002
}
  0
LINE
  5
259
330
229
100
AcDbEntity
  8
A-WALL
100
AcDbLine
 10
-23506.59218420412
 20
6341.649613435962
 30
0.0
 11
-23506.59218420412
 21
6376.64961343597
 31
0.0
1001
REVIT
1002
{
1070
     1
1000
1363660
1002
}
1002
{
1070
     5
1000
1363658
1002
}
  0
SPLINE
  5
25A
330
229
100
AcDbEntity
  8
A-WALL
100
AcDbSpline
210
0.0
220
0.0
230
1.0
 70
     8
 71
     3
 72
    19
 73
    15
 74
     0
 42
0.000000001
 43
0.0000000001
 40
0.0
 40
0.0
 40
0.0
 40
0.0
 40
0.1666666666666666
 40
0.25
 40
0.3333333333333333
 40
0.4166666666666666
 40
0.4583333333333333
 40
0.5
 40
0.5833333333333333
 40
0.6666666666666666
 40
0.7083333333333333
 40
0.75
 40
0.8333333333333332
 40
1.0
 40
1.0
 40
1.0
 40
1.0
 10
-23506.59218420401
 20
6376.64961343597
 30
0.0
 10
-23506.59628903806
 20
6377.575214048095
 30
0.0
 10
-23506.77434855287
 20
6378.963490907395
 30
0.0
 10
-23507.37880005695
 20
6380.720189031428
 30
0.0
 10
-23507.99603094336
 20
6381.968083558444
 30
0.0
 10
-23508.6444485981
 20
6382.932149346584
 30
0.0
 10
-23509.24018116404
 20
6383.648024828438
 30
0.0
 10
-23509.87160303383
 20
6384.323956811345
 30
0.0
 10
-23510.75268536495
 20
6385.088466095806
 30
0.0
 10
-23511.72415814529
 20
6385.732626591045
 30
0.0
 10
-23512.54040101449
 20
6386.169178831288
 30
0.0
 10
-23513.39631126789
 20
6386.551383597144
 30
0.0
 10
-23514.94369833742
 20
6387.073310542104
 30
0.0
 10
-23516.31823993341
 20
6387.256215153771
 30
0.0
 10
-23517.27076429529
 20
6387.256215153763
 30
0.0
1001
REVIT
1002
{
1070
     1
1000
1363660
1002
}
1002
{
1070
     5
1000
1363658
1002
}
  0
LINE
  5
25B
330
229
100
AcDbEntity
  8
A-WALL
100
AcDbLine
 10
-23517.2707642953
 20
6387.256215153763
 30
0.0
 11
-23514.89761934351
 21
6387.256215153763
 31
0.0
1001
REVIT
1002
{
1070
     1
1000
1363660
1002
}
1002
{
1070
     5
1000
1363658
1002
}
  0
LINE
  5
25C
330
229
100
AcDbEntity
  8
A-WALL
100
AcDbLine
 10
-23517.2707642953
 20
6387.256215153763
 30
0.0
 11
-23525.12348254533
 21
6388.631528123358
 31
0.0
1001
REVIT
1002
{
1070
     1
1000
1363660
1002
}
1002
{
1070
     5
1000
1363658
1002
}
  0
SPLINE
  5
25D
330
229
100
AcDbEntity
  8
A-WALL
100
AcDbSpline
210
0.0
220
0.0
230
1.0
 70
     8
 71
     3
 72
    15
 73
    11
 74
     0
 42
0.000000001
 43
0.0000000001
 40
0.0
 40
0.0
 40
0.0
 40
0.0
 40
0.1666666666666666
 40
0.3333333333333333
 40
0.4166666666666666
 40
0.5
 40
0.5833333333333333
 40
0.6666666666666666
 40
0.8333333333333332
 40
1.0
 40
1.0
 40
1.0
 40
1.0
 10
-23525.12348254533
 20
6388.631528123376
 30
0.0
 10
-23525.83437896634
 20
6388.753946848149
 30
0.0
 10
-23527.18576213971
 20
6389.16105278221
 30
0.0
 10
-23528.73981312947
 20
6390.048337010254
 30
0.0
 10
-23529.82696368247
 20
6390.956244806865
 30
0.0
 10
-23530.56019067337
 20
6391.726709953098
 30
0.0
 10
-23531.19564341788
 20
6392.576379167485
 30
0.0
 10
-23531.90801169957
 20
6393.799478495061
 30
0.0
 10
-23532.51953884686
 20
6395.466839968729
 30
0.0
 10
-23532.68238194341
 20
6396.876777502539
 30
0.0
 10
-23532.68458301563
 20
6397.581758841347
 30
0.0
1001
REVIT
1002
{
1070
     1
1000
1363660
1002
}
1002
{
1070
     5
1000
1363658
1002
}
  0
LINE
  5
25E
330
229
100
AcDbEntity
  8
A-WALL
100
AcDbLine
 10
-23532.68458301574
 20
6397.581758841347
 30
0.0
 11
-23532.6845830157
 21
6455.3843284945
 31
0.0
1001
REVIT
1002
{
1070
     1
1000
1363660
1002
}
1002
{
1070
     5
1000
1363658
1002
}
  0
LINE
  5
25F
330
229
100
AcDbEntity
  8
A-WALL
100
AcDbLine
 10
-23537.7185139463
 20
6455.384328494503
 30
0.0
 11
-23537.71851394629
 21
6460.384328494538
 31
0.0
1001
REVIT
1002
{
1070
     1
1000
1363660
1002
}
1002
{
1070
     5
1000
1363658
1002
}
  0
SPLINE
  5
260
330
229
100
AcDbEntity
  8
A-WALL
100
AcDbSpline
210
0.0
220
0.0
230
1.0
 70
     8
 71
     3
 72
    11
 73
     7
 74
     0
 42
0.000000001
 43
0.0000000001
 40
0.0
 40
0.0
 40
0.0
 40
0.0
 40
0.25
 40
0.5
 40
0.75
 40
1.0
 40
1.0
 40
1.0
 40
1.0
 10
-23537.7185139463
 20
6460.384328494541
 30
0.0
 10
-23541.85171543703
 20
6461.921970956836
 30
0.0
 10
-23549.59778496148
 20
6465.856035794465
 30
0.0
 10
-23559.85845686187
 20
6474.071260324388
 30
0.0
 10
-23568.13933261611
 20
6484.235264026195
 30
0.0
 10
-23572.05522934691
 20
6492.009029129005
 30
0.0
 10
-23573.6353053924
 20
6496.059024811811
 30
0.0
1001
REVIT
1002
{
1070
     1
1000
1363660
1002
}
1002
{
1070
     5
1000
1363658
1002
}
  0
LINE
  5
261
330
229
100
AcDbEntity
  8
A-WALL
100
AcDbLine
 10
-23573.6353053924
 20
6496.059024811811
 30
0.0
 11
-23573.6353053924
 21
6526.059024811542
 31
0.0
1001
REVIT
1002
{
1070
     1
1000
1363660
1002
}
1002
{
1070
     5
1000
1363658
1002
}
  0
SPLINE
  5
262
330
229
100
AcDbEntity
  8
A-WALL
100
AcDbSpline
210
0.0
220
0.0
230
1.0
 70
     8
 71
     3
 72
    10
 73
     6
 74
     0
 42
0.000000001
 43
0.0000000001
 40
0.0
 40
0.0
 40
0.0
 40
0.0
 40
0.3333333333333333
 40
0.6666666666666666
 40
1.0
 40
1.0
 40
1.0
 40
1.0
 10
-23573.6353053924
 20
6526.059024811542
 30
0.0
 10
-23581.67962216082
 20
6526.079424860497
 30
0.0
 10
-23597.40608958524
 20
6527.672460900086
 30
0.0
 10
-23620.42284909196
 20
6534.627189675683
 30
0.0
 10
-23634.34198146126
 20
6542.129347278391
 30
0.0
 10
-23641.03091465426
 20
6546.525044142203
 30
0.0
1001
REVIT
1002
{
1070
     1
1000
1363660
1002
}
1002
{
1070
     5
1000
1363658
1002
}
  0
LINE
  5
263
330
229
100
AcDbEntity
  8
A-WALL
100
AcDbLine
 10
-23641.03091465426
 20
6546.525044142203
 30
0.0
 11
-23637.82642129814
 21
6546.525044142203
 31
0.0
1001
REVIT
1002
{
1070
     1
1000
1363660
1002
}
1002
{
1070
     5
1000
1363658
1002
}
  0
LINE
  5
264
330
229
100
AcDbEntity
  8
A-WALL
100
AcDbLine
 10
-23490.66472194607
 20
6325.579254928542
 30
0.0
 11
-23492.87398357465
 21
6325.579254928542
 31
0.0
1001
REVIT
1002
{
1070
     1
1000
1363660
1002
}
1002
{
1070
     5
1000
1363658
1002
}
  0
LINE
  5
265
330
229
100
AcDbEntity
  8
A-WALL
100
AcDbLine
 10
-23499.05598706176
 20
6330.423841782275
 30
0.0
 11
-23501.32199751366
 21
6330.423841782275
 31
0.0
1001
REVIT
1002
{
1070
     1
1000
1363660
1002
}
1002
{
1070
     5
1000
1363658
1002
}
  0
LINE
  5
266
330
229
100
AcDbEntity
  8
A-WALL
100
AcDbLine
 10
-23514.89761934351
 20
6387.256215153763
 30
0.0
 11
-23517.2707642953
 21
6387.256215153763
 31
0.0
1001
REVIT
1002
{
1070
     1
1000
1363660
1002
}
1002
{
1070
     5
1000
1363658
1002
}
  0
LINE
  5
267
330
229
100
AcDbEntity
  8
A-WALL
100
AcDbLine
 10
-23535.20801295547
 20
6455.384328494503
 30
0.0
 11
-23537.7185139463
 21
6455.384328494503
 31
0.0
1001
REVIT
1002
{
1070
     1
1000
1363660
1002
}
1002
{
1070
     5
1000
1363658
1002
}
  0
LINE
  5
268
330
229
100
AcDbEntity
  8
A-WALL
100
AcDbLine
 10
-23535.20801295547
 20
6460.384328494538
 30
0.0
 11
-23537.7185139463
 21
6460.384328494538
 31
0.0
1001
REVIT
1002
{
1070
     1
1000
1363660
1002
}
1002
{
1070
     5
1000
1363658
1002
}
  0
LINE
  5
269
330
229
100
AcDbEntity
  8
A-WALL
100
AcDbLine
 10
-23570.8835363749
 20
6496.059024811811
 30
0.0
 11
-23573.6353053924
 21
6496.059024811811
 31
0.0
1001
REVIT
1002
{
1070
     1
1000
1363660
1002
}
1002
{
1070
     5
1000
1363658
1002
}
  0
LINE
  5
26A
330
229
100
AcDbEntity
  8
A-WALL
100
AcDbLine
 10
-23570.8835363749
 20
6526.059024811542
 30
0.0
 11
-23573.6353053924
 21
6526.059024811542
 31
0.0
1001
REVIT
1002
{
1070
     1
1000
1363660
1002
}
1002
{
1070
     5
1000
1363658
1002
}
  0
ENDBLK
  5
26C
330
229
100
AcDbEntity
  8
0
100
AcDbBlockEnd
  0
BLOCK
  5
2B4
330
2A9
100
AcDbEntity
  8
0
100
AcDbBlockBegin
  2
Muri 52 - Muri 52-1655002-F0_CAVALLERIZZA_DXF_ZZ_Sezione
 70
     0
 10
0.0
 20
0.0
 30
0.0
  3
Muri 52 - Muri 52-1655002-F0_CAVALLERIZZA_DXF_ZZ_Sezione
  1

  0
LINE
  5
2AA
330
2A9
100
AcDbEntity
  8
A-WALL
370
    30
100
AcDbLine
 10
-2666.608289333336
 20
6588.20631684693
 30
0.0
 11
-2666.608289333336
 21
6565.021001008426
 31
0.0
1001
REVIT
1002
{
1070
     1
1000
1655004
1002
}
1002
{
1070
     5
1000
1655002
1002
}
  0
LINE
  5
2AB
330
2A9
100
AcDbEntity
  8
A-WALL
370
    30
100
AcDbLine
 10
-2666.608289333336
 20
6565.021001008426
 30
0.0
 11
-2512.856196298303
 21
6570.389737609031
 31
0.0
1001
REVIT
1002
{
1070
     1
1000
1655004
1002
}
1002
{
1070
     5
1000
1655002
1002
}
  0
LWPOLYLINE
  5
2AC
330
2A9
100
AcDbEntity
  8
A-WALL
370
    30
100
AcDbPolyline
 90
        8
 70
   128
 43
0.0
 10
-2512.856196298301
 20
6570.389737609031
 10
-2508.18828462396
 20
6570.915645287484
 10
-2503.754441532474
 20
6572.466997115856
 10
-2499.776998430564
 20
6574.96600183558
 10
-2496.455400923716
 20
6578.28734891508
 10
-2493.956207780709
 20
6582.264492143051
 10
-2492.404738981451
 20
6586.698000950939
 10
-2491.878791649909
 20
6591.365560694399
1001
REVIT
1002
{
1070
     1
1000
1655004
1002
}
1002
{
1070
     5
1000
1655002
1002
}
  0
LINE
  5
2AD
330
2A9
100
AcDbEntity
  8
A-WALL
370
    30
100
AcDbLine
 10
-2491.878791649909
 20
6591.365560694399
 30
0.0
 11
-2478.580859541893
 21
6675.319069644984
 31
0.0
1001
REVIT
1002
{
1070
     1
1000
1655004
1002
}
1002
{
1070
     5
1000
1655002
1002
}
  0
LWPOLYLINE
  5
2AE
330
2A9
100
AcDbEntity
  8
A-WALL
370
    30
100
AcDbPolyline
 90
        5
 70
   128
 43
0.0
 10
-2478.580859541893
 20
6675.319069644984
 10
-2477.123924931187
 20
6680.317208992173
 10
-2474.461868618336
 20
6684.791386016344
 10
-2470.764276153359
 20
6688.456574526329
 10
-2466.266701626117
 20
6691.079284717111
1001
REVIT
1002
{
1070
     1
1000
1655004
1002
}
1002
{
1070
     5
1000
1655002
1002
}
  0
LWPOLYLINE
  5
2AF
330
2A9
100
AcDbEntity
  8
A-WALL
370
    30
100
AcDbPolyline
 90
        3
 70
   128
 43
0.0
 10
-2466.266701626115
 20
6691.079284717111
 10
-2457.437218689305
 20
6695.872941364007
 10
-2449.684699997439
 20
6702.263142786531
1001
REVIT
1002
{
1070
     1
1000
1655004
1002
}
1002
{
1070
     5
1000
1655002
1002
}
  0
LINE
  5
2B0
330
2A9
100
AcDbEntity
  8
A-WALL
370
    30
100
AcDbLine
 10
-2449.684699997439
 20
6702.263142786531
 30
0.0
 11
-2408.472775159213
 21
6776.605817893368
 31
0.0
1001
REVIT
1002
{
1070
     1
1000
1655004
1002
}
1002
{
1070
     5
1000
1655002
1002
}
  0
LWPOLYLINE
  5
2B1
330
2A9
100
AcDbEntity
  8
A-WALL
370
    30
100
AcDbPolyline
 90
        3
 70
   128
 43
0.0
 10
-2408.472775159211
 20
6776.605817893363
 10
-2399.667870381849
 20
6795.924961428749
 10
-2393.993776347535
 20
6816.383540971012
1001
REVIT
1002
{
1070
     1
1000
1655004
1002
}
1002
{
1070
     5
1000
1655002
1002
}
  0
LINE
  5
2B2
330
2A9
100
AcDbEntity
  8
A-WALL
370
    30
100
AcDbLine
 10
-2393.993776347535
 20
6816.383540971012
 30
0.0
 11
-2389.232951171184
 21
6893.983113643525
 31
0.0
1001
REVIT
1002
{
1070
     1
1000
1655004
1002
}
1002
{
1070
     5
1000
1655002
1002
}
  0
LINE
  5
2B3
330
2A9
100
AcDbEntity
  8
A-WALL
370
    30
100
AcDbLine
 10
-2389.232951171184
 20
6893.983113643525
 30
0.0
 11
-2666.608289333336
 21
7023.315606428392
 31
0.0
1001
REVIT
1002
{
1070
     1
1000
1655004
1002
}
1002
{
1070
     5
1000
1655002
1002
}
  0
ENDBLK
  5
2B5
330
2A9
100
AcDbEntity
  8
0
100
AcDbBlockEnd
  0
BLOCK
  5
2C8
330
2B7
100
AcDbEntity
  8
0
100
AcDbBlockBegin
  2
Muri 18 - Muri 18-1657618-F0_CAVALLERIZZA_DXF_ZZ_Sezione
 70
     0
 10
0.0
 20
0.0
 30
0.0
  3
Muri 18 - Muri 18-1657618-F0_CAVALLERIZZA_DXF_ZZ_Sezione
  1

  0
LINE
  5
2B8
330
2B7
100
AcDbEntity
  8
A-WALL
370
    30
100
AcDbLine
 10
-2735.453878883217
 20
6093.206316846931
 30
0.0
 11
-2703.183571029751
 21
6093.206316846931
 31
0.0
1001
REVIT
1002
{
1070
     1
1000
1657620
1002
}
1002
{
1070
     5
1000
1657618
1002
}
  0
LINE
  5
2B9
330
2B7
100
AcDbEntity
  8
A-WALL
370
    30
100
AcDbLine
 10
-2703.183571029751
 20
6093.206316846931
 30
0.0
 11
-2703.183571029751
 21
6119.174261241354
 31
0.0
1001
REVIT
1002
{
1070
     1
1000
1657620
1002
}
1002
{
1070
     5
1000
1657618
1002
}
  0
LWPOLYLINE
  5
2BA
330
2B7
100
AcDbEntity
  8
A-WALL
370
    30
100
AcDbPolyline
 90
        3
 70
   128
 43
0.0
 10
-2703.183571029755
 20
6119.174261241354
 10
-2701.154927679826
 20
6136.26581376958
 10
-2695.181710591084
 20
6152.407746694013
1001
REVIT
1002
{
1070
     1
1000
1657620
1002
}
1002
{
1070
     5
1000
1657618
1002
}
  0
LWPOLYLINE
  5
2BB
330
2B7
100
AcDbEntity
  8
A-WALL
370
    30
100
AcDbPolyline
 90
        5
 70
   128
 43
0.0
 10
-2695.181710591084
 20
6152.407746694013
 10
-2690.037600111089
 20
6166.677135727962
 10
-2688.630822963492
 20
6181.779937538417
 10
-2691.051018117538
 20
6196.753810940611
 10
-2697.14397223578
 20
6210.644629988163
1001
REVIT
1002
{
1070
     1
1000
1657620
1002
}
1002
{
1070
     5
1000
1657618
1002
}
  0
LWPOLYLINE
  5
2BC
330
2B7
100
AcDbEntity
  8
A-WALL
370
    30
100
AcDbPolyline
 90
        3
 70
   128
 43
0.0
 10
-2697.143972235783
 20
6210.644629988163
 10
-2702.4830810001
 20
6225.720671301899
 10
-2704.29372165669
 20
6241.611262248611
1001
REVIT
1002
{
1070
     1
1000
1657620
1002
}
1002
{
1070
     5
1000
1657618
1002
}
  0
LINE
  5
2BD
330
2B7
100
AcDbEntity
  8
A-WALL
370
    30
100
AcDbLine
 10
-2704.29372165669
 20
6241.611262248611
 30
0.0
 11
-2704.293721656684
 21
6296.611262248634
 31
0.0
1001
REVIT
1002
{
1070
     1
1000
1657620
1002
}
1002
{
1070
     5
1000
1657618
1002
}
  0
LWPOLYLINE
  5
2BE
330
2B7
100
AcDbEntity
  8
A-WALL
370
    30
100
AcDbPolyline
 90
        3
 70
   128
 43
0.0
 10
-2704.293721656684
 20
6296.611262248634
 10
-2702.115778913837
 20
6307.814961581455
 10
-2697.291905834186
 20
6318.159010850031
1001
REVIT
1002
{
1070
     1
1000
1657620
1002
}
1002
{
1070
     5
1000
1657618
1002
}
  0
LWPOLYLINE
  5
2BF
330
2B7
100
AcDbEntity
  8
A-WALL
370
    30
100
AcDbPolyline
 90
        4
 70
   128
 43
0.0
 10
-2697.291905834186
 20
6318.159010850031
 10
-2692.459650189752
 20
6327.780097499189
 10
-2689.491841362942
 20
6338.129296545679
 10
-2688.491042988212
 20
6348.848953056228
1001
REVIT
1002
{
1070
     1
1000
1657620
1002
}
1002
{
1070
     5
1000
1657618
1002
}
  0
LINE
  5
2C0
330
2B7
100
AcDbEntity
  8
A-WALL
370
    30
100
AcDbLine
 10
-2688.491042988212
 20
6348.848953056228
 30
0.0
 11
-2688.491042988212
 21
6378.84895305623
 31
0.0
1001
REVIT
1002
{
1070
     1
1000
1657620
1002
}
1002
{
1070
     5
1000
1657618
1002
}
  0
LWPOLYLINE
  5
2C1
330
2B7
100
AcDbEntity
  8
A-WALL
370
    30
100
AcDbPolyline
 90
        3
 70
   128
 43
0.0
 10
-2688.491042988215
 20
6378.84895305623
 10
-2684.877924008891
 20
6396.075656969326
 10
-2677.674632696474
 20
6412.135931126552
1001
REVIT
1002
{
1070
     1
1000
1657620
1002
}
1002
{
1070
     5
1000
1657618
1002
}
  0
LWPOLYLINE
  5
2C2
330
2B7
100
AcDbEntity
  8
A-WALL
370
    30
100
AcDbPolyline
 90
        3
 70
   128
 43
0.0
 10
-2677.674632696473
 20
6412.135931126552
 10
-2671.529010450008
 20
6433.899472578187
 10
-2669.859875518417
 20
6456.452280012108
1001
REVIT
1002
{
1070
     1
1000
1657620
1002
}
1002
{
1070
     5
1000
1657618
1002
}
  0
LWPOLYLINE
  5
2C3
330
2B7
100
AcDbEntity
  8
A-WALL
370
    30
100
AcDbPolyline
 90
        5
 70
   128
 43
0.0
 10
-2669.859875518417
 20
6456.452280012108
 10
-2668.265808838388
 20
6472.012975630339
 10
-2662.757700817846
 20
6486.653372967698
 10
-2653.699441109857
 20
6499.406263485766
 10
-2641.689457880747
 20
6509.429135583639
1001
REVIT
1002
{
1070
     1
1000
1657620
1002
}
1002
{
1070
     5
1000
1657618
1002
}
  0
LWPOLYLINE
  5
2C4
330
2B7
100
AcDbEntity
  8
A-WALL
370
    30
100
AcDbPolyline
 90
        4
 70
   128
 43
0.0
 10
-2641.689457880747
 20
6509.429135583639
 10
-2629.165210698316
 20
6517.040748824115
 10
-2618.801761448454
 20
6527.403416735743
 10
-2611.189574297431
 20
6539.926719669509
1001
REVIT
1002
{
1070
     1
1000
1657620
1002
}
1002
{
1070
     5
1000
1657618
1002
}
  0
LWPOLYLINE
  5
2C5
330
2B7
100
AcDbEntity
  8
A-WALL
370
    30
100
AcDbPolyline
 90
        6
 70
   128
 43
0.0
 10
-2611.189574297438
 20
6539.926719669513
 10
-2605.456717741708
 20
6549.217439986759
 10
-2597.583192376293
 20
6556.780185414273
 10
-2588.068957498999
 20
6562.134730802845
 10
-2577.518155468875
 20
6564.941069023747
 10
-2566.600749400214
 20
6565.021001008426
1001
REVIT
1002
{
1070
     1
1000
1657620
1002
}
1002
{
1070
     5
1000
1657618
1002
}
  0
LINE
  5
2C6
330
2B7
100
AcDbEntity
  8
A-WALL
370
    30
100
AcDbLine
 10
-2566.600749400214
 20
6565.021001008426
 30
0.0
 11
-2566.600749400201
 21
6588.20631684693
 31
0.0
1001
REVIT
1002
{
1070
     1
1000
1657620
1002
}
1002
{
1070
     5
1000
1657618
1002
}
  0
LINE
  5
2C7
330
2B7
100
AcDbEntity
  8
A-WALL
370
    30
100
AcDbLine
 10
-2566.600749400201
 20
6588.20631684693
 30
0.0
 11
-2666.608289333332
 21
6588.20631684693
 31
0.0
1001
REVIT
1002
{
1070
     1
1000
1657620
1002
}
1002
{
1070
     5
1000
1657618
1002
}
  0
ENDBLK
  5
2C9
330
2B7
100
AcDbEntity
  8
0
100
AcDbBlockEnd
  0
BLOCK
  5
2D2
330
2CB
100
AcDbEntity
  8
0
100
AcDbBlockBegin
  2
Muri 19 - Muri 19-1658488-F0_CAVALLERIZZA_DXF_ZZ_Sezione
 70
     0
 10
0.0
 20
0.0
 30
0.0
  3
Muri 19 - Muri 19-1658488-F0_CAVALLERIZZA_DXF_ZZ_Sezione
  1

  0
LINE
  5
2CC
330
2CB
100
AcDbEntity
  8
A-WALL
370
    30
100
AcDbLine
 10
-3292.598785387289
 20
6091.331316846932
 30
0.0
 11
-2735.453878883217
 21
6091.331316846932
 31
0.0
1001
REVIT
1002
{
1070
     1
1000
1658490
1002
}
1002
{
1070
     5
1000
1658488
1002
}
  0
LINE
  5
2CD
330
2CB
100
AcDbEntity
  8
A-WALL
370
    30
100
AcDbLine
 10
-2735.453878883217
 20
6091.331316846932
 30
0.0
 11
-2735.453878883217
 21
6093.206316846931
 31
0.0
1001
REVIT
1002
{
1070
     1
1000
1658490
1002
}
1002
{
1070
     5
1000
1658488
1002
}
  0
LINE
  5
2CE
330
2CB
100
AcDbEntity
  8
A-WALL
370
    30
100
AcDbLine
 10
-2666.608289333332
 20
7023.315606428392
 30
0.0
 11
-3292.598785387291
 21
7289.012773801099
 31
0.0
1001
REVIT
1002
{
1070
     1
1000
1658490
1002
}
1002
{
1070
     5
1000
1658488
1002
}
  0
LINE
  5
2CF
330
2CB
100
AcDbEntity
  8
A-WALL
370
    30
100
AcDbLine
 10
-3292.598785387291
 20
7289.012773801099
 30
0.0
 11
-3292.598785387289
 21
6091.331316846932
 31
0.0
1001
REVIT
1002
{
1070
     1
1000
1658490
1002
}
1002
{
1070
     5
1000
1658488
1002
}
  0
LINE
  5
2D0
330
2CB
100
AcDbEntity
  8
A-WALL
100
AcDbLine
 10
-3339.64184156504
 20
7289.012773801097
 30
0.0
 11
-3292.598785387291
 21
7289.012773801097
 31
0.0
1001
REVIT
1002
{
1070
     1
1000
1658490
1002
}
1002
{
1070
     5
1000
1658488
1002
}
  0
LINE
  5
2D1
330
2CB
100
AcDbEntity
  8
A-WALL
100
AcDbLine
 10
-3341.719754064018
 20
7285.553983299145
 30
0.0
 11
-3339.64184156504
 21
7289.012773801099
 31
0.0
1001
REVIT
1002
{
1070
     1
1000
1658490
1002
}
1002
{
1070
     5
1000
1658488
1002
}
  0
ENDBLK
  5
2D3
330
2CB
100
AcDbEntity
  8
0
100
AcDbBlockEnd
  0
ENDSEC
  0
SECTION
  2
ENTITIES
  0
LINE
  5
C0
330
70
100
AcDbEntity
  8
A-FLOR
370
    30
100
AcDbLine
 10
-21910.25447964301
 20
3690.856147133543
 30
0.0
 11
-16149.50449405117
 21
3690.856147133543
 31
0.0
1001
REVIT
1002
{
1070
     1
1000
879039
1002
}
1002
{
1070
     5
1000
879041
1002
}
1002
{
1070
     2
1000
-2000032
1002
}
  0
LINE
  5
C1
330
70
100
AcDbEntity
  8
A-FLOR
370
    30
100
AcDbLine
 10
-15829.49898487939
 20
3690.856147133543
 30
0.0
 11
-15819.1682483895
 21
3690.856147133543
 31
0.0
1001
REVIT
1002
{
1070
     1
1000
879039
1002
}
1002
{
1070
     5
1000
879041
1002
}
1002
{
1070
     2
1000
-2000032
1002
}
  0
LINE
  5
C2
330
70
100
AcDbEntity
  8
A-FLOR
370
    30
100
AcDbLine
 10
-15819.1682483895
 20
3690.856147133543
 30
0.0
 11
-15819.1682483895
 21
3840.856147133539
 31
0.0
1001
REVIT
1002
{
1070
     1
1000
879039
1002
}
1002
{
1070
     5
1000
879041
1002
}
1002
{
1070
     2
1000
-2000032
1002
}
  0
LINE
  5
C3
330
70
100
AcDbEntity
  8
A-FLOR
370
    30
100
AcDbLine
 10
-15819.1682483895
 20
3840.856147133539
 30
0.0
 11
-22684.93874753846
 21
3840.856147133539
 31
0.0
1001
REVIT
1002
{
1070
     1
1000
879039
1002
}
1002
{
1070
     5
1000
879041
1002
}
1002
{
1070
     2
1000
-2000032
1002
}
  0
HATCH
  5
C9
330
70
100
AcDbEntity
  8
A-WALL-PATT
370
     9
100
AcDbHatch
 10
0.0
 20
0.0
 30
0.0
210
0.0
220
0.0
230
1.0
  2
FP_1
 70
     0
 71
     0
 91
        1
 92
        1
 93
        4
 72
     1
 10
-22699.93909530698
 20
-1201.261914311821
 11
-22699.93909530698
 21
6093.206316846901
 72
     1
 10
-22699.93909530698
 20
6093.206316846901
 11
-23454.95659965521
 21
6093.206316846901
 72
     1
 10
-23454.95659965521
 20
6093.206316846901
 11
-23456.93582029177
 21
-1201.261914311821
 72
     1
 10
-23456.93582029177
 20
-1201.261914311821
 11
-22699.93909530698
 21
-1201.261914311821
 97
        0
 75
     0
 76
     2
 52
0.0
 41
1.0
 77
     0
 78
     1
 53
45.0
 43
-17420.153
 44
27711.02
 45
-212.1320343559643
 46
212.1320343559643
 79
     0
 98
        1
 10
0.0
 20
0.0
1001
REVIT
1002
{
1070
     1
1000
880408
1002
}
1002
{
1070
     5
1000
1350691
1002
}
1002
{
1070
     4
1000
3165
1002
}
1002
{
1070
     2
1000
-2000011
1002
}
1002
{
1070
     3
1000
-2000588
1002
}
  0
LINE
  5
CB
330
70
100
AcDbEntity
  8
A-WALL
370
    30
100
AcDbLine
 10
-22684.93874753846
 20
3840.856147133539
 30
0.0
 11
-22684.93874753846
 21
6093.206316846931
 31
0.0
1001
REVIT
1002
{
1070
     1
1000
880408
1002
}
1002
{
1070
     5
1000
1350691
1002
}
1002
{
1070
     2
1000
-2000011
1002
}
  0
LINE
  5
CC
330
70
100
AcDbEntity
  8
A-WALL
370
    30
100
AcDbLine
 10
-22684.93874753846
 20
6093.206316846931
 30
0.0
 11
-23408.43652349509
 21
6093.206316846931
 31
0.0
1001
REVIT
1002
{
1070
     1
1000
880408
1002
}
1002
{
1070
     5
1000
1350691
1002
}
1002
{
1070
     2
1000
-2000011
1002
}
  0
LINE
  5
CD
330
70
100
AcDbEntity
  8
A-WALL
370
    30
100
AcDbLine
 10
-23408.43652595835
 20
6093.206316846931
 30
0.0
 11
-23477.41660026394
 21
6093.206316846931
 31
0.0
1001
REVIT
1002
{
1070
     1
1000
880408
1002
}
1002
{
1070
     5
1000
1350691
1002
}
1002
{
1070
     2
1000
-2000011
1002
}
  0
LINE
  5
CF
330
70
100
AcDbEntity
  8
A-WALL
370
    20
100
AcDbLine
 10
-22699.93909530697
 20
6093.206316846931
 30
0.0
 11
-22699.93909530697
 21
3825.856147133544
 31
0.0
1001
REVIT
1002
{
1070
     1
1000
880408
1002
}
1002
{
1070
     5
1000
1350691
1002
}
1002
{
1070
     2
1000
-2000011
1002
}
1002
{
1070
     3
1000
-2000586
1002
}
  0
LINE
  5
D0
330
70
100
AcDbEntity
  8
A-WALL
100
AcDbLine
 10
-23456.93582029177
 20
6093.206316846931
 30
0.0
 11
-23456.93582029177
 21
-1201.261914311821
 31
0.0
1001
REVIT
1002
{
1070
     1
1000
880408
1002
}
1002
{
1070
     5
1000
1350691
1002
}
1002
{
1070
     2
1000
-2000011
1002
}
  0
INSERT
  5
F6
330
70
100
AcDbEntity
  8
S-BEAM
100
AcDbBlockReference
  2
Telaio strutturale 5 - Telaio strutturale 1-885710-F0_CAVALLERIZZA_DXF_ZZ_Sezione
 10
0.0
 20
0.0
 30
0.0
1001
REVIT
1002
{
1070
     1
1000
885712
1002
}
1002
{
1070
     5
1000
885710
1002
}
1002
{
1070
     2
1000
-2001320
1002
}
  0
INSERT
  5
112
330
70
100
AcDbEntity
  8
S-BEAM
100
AcDbBlockReference
  2
Telaio strutturale 10 - Telaio strutturale 2-890677-F0_CAVALLERIZZA_DXF_ZZ_Sezione
 10
0.0
 20
0.0
 30
0.0
1001
REVIT
1002
{
1070
     1
1000
890679
1002
}
1002
{
1070
     5
1000
890677
1002
}
1002
{
1070
     2
1000
-2001320
1002
}
  0
INSERT
  5
11A
330
70
100
AcDbEntity
  8
S-BEAM
100
AcDbBlockReference
  2
Telaio strutturale 17 - Telaio strutturale 17-908847-F0_CAVALLERIZZA_DXF_ZZ_Sezione
 10
0.0
 20
0.0
 30
0.0
1001
REVIT
1002
{
1070
     1
1000
908849
1002
}
1002
{
1070
     5
1000
908847
1002
}
1002
{
1070
     2
1000
-2001320
1002
}
  0
HATCH
  5
11F
330
70
100
AcDbEntity
  8
A-WALL-PATT
370
     9
100
AcDbHatch
 10
0.0
 20
0.0
 30
0.0
210
0.0
220
0.0
230
1.0
  2
FP_1
 70
     0
 71
     0
 91
        1
 92
        1
 93
        4
 72
     1
 10
-16134.50423580874
 20
39.99999999996492
 11
-15844.49924312182
 21
39.99999999996492
 72
     1
 10
-15844.49924312182
 20
39.99999999996492
 11
-15844.49924312182
 21
3690.856147133513
 72
     1
 10
-15844.49924312182
 20
3690.856147133513
 11
-16134.50423580874
 21
3690.856147133513
 72
     1
 10
-16134.50423580874
 20
3690.856147133513
 11
-16134.50423580874
 21
39.99999999996499
 97
        0
 75
     0
 76
     2
 52
0.0
 41
1.0
 77
     0
 78
     1
 53
45.0
 43
-17420.153
 44
27711.02
 45
-212.1320343559643
 46
212.1320343559643
 79
     0
 98
        1
 10
0.0
 20
0.0
1001
REVIT
1002
{
1070
     1
1000
924435
1002
}
1002
{
1070
     5
1000
924359
1002
}
1002
{
1070
     2
1000
-2000011
1002
}
1002
{
1070
     3
1000
-2000588
1002
}
  0
LINE
  5
120
330
70
100
AcDbEntity
  8
A-WALL
370
    30
100
AcDbLine
 10
-16149.50449405117
 20
3690.856147133543
 30
0.0
 11
-16149.50449405117
 21
39.99999999999957
 31
0.0
1001
REVIT
1002
{
1070
     1
1000
924435
1002
}
1002
{
1070
     5
1000
924359
1002
}
1002
{
1070
     2
1000
-2000011
1002
}
  0
LINE
  5
121
330
70
100
AcDbEntity
  8
A-WALL
370
    30
100
AcDbLine
 10
-15829.49898487939
 20
39.99999999999957
 30
0.0
 11
-15829.49898487939
 21
3690.856147133543
 31
0.0
1001
REVIT
1002
{
1070
     1
1000
924435
1002
}
1002
{
1070
     5
1000
924359
1002
}
1002
{
1070
     2
1000
-2000011
1002
}
  0
LINE
  5
124
330
70
100
AcDbEntity
  8
A-WALL
370
    20
100
AcDbLine
 10
-16149.50449405117
 20
39.99999999999957
 30
0.0
 11
-15829.49898487939
 21
39.99999999999957
 31
0.0
1001
REVIT
1002
{
1070
     1
1000
924435
1002
}
1002
{
1070
     5
1000
924359
1002
}
1002
{
1070
     2
1000
-2000011
1002
}
1002
{
1070
     3
1000
-2000586
1002
}
  0
LINE
  5
125
330
70
100
AcDbEntity
  8
A-WALL
370
    20
100
AcDbLine
 10
-15844.49924312181
 20
39.99999999999957
 30
0.0
 11
-15844.49924312181
 21
3690.856147133543
 31
0.0
1001
REVIT
1002
{
1070
     1
1000
924435
1002
}
1002
{
1070
     5
1000
924359
1002
}
1002
{
1070
     2
1000
-2000011
1002
}
1002
{
1070
     3
1000
-2000586
1002
}
  0
LINE
  5
126
330
70
100
AcDbEntity
  8
A-WALL
370
    20
100
AcDbLine
 10
-15829.49898487939
 20
3690.856147133543
 30
0.0
 11
-16149.50449405117
 21
3690.856147133543
 31
0.0
1001
REVIT
1002
{
1070
     1
1000
924435
1002
}
1002
{
1070
     5
1000
924359
1002
}
1002
{
1070
     2
1000
-2000011
1002
}
1002
{
1070
     3
1000
-2000586
1002
}
  0
LINE
  5
128
330
70
100
AcDbEntity
  8
A-WALL
370
    20
100
AcDbLine
 10
-16134.50423580874
 20
39.99999999999957
 30
0.0
 11
-16134.50423580874
 21
3690.856147133543
 31
0.0
1001
REVIT
1002
{
1070
     1
1000
924435
1002
}
1002
{
1070
     5
1000
924359
1002
}
1002
{
1070
     2
1000
-2000011
1002
}
1002
{
1070
     3
1000
-2000586
1002
}
  0
HATCH
  5
131
330
70
100
AcDbEntity
  8
A-WALL-PATT
370
     9
100
AcDbHatch
 10
0.0
 20
0.0
 30
0.0
210
0.0
220
0.0
230
1.0
  2
FP_1
 70
     0
 71
     0
 91
        1
 92
        1
 93
        4
 72
     1
 10
-21925.25578928715
 20
-1201.261914311821
 11
-21925.25578928715
 21
3825.856147133514
 72
     1
 10
-21925.25578928715
 20
3825.856147133514
 11
-22684.93874753846
 21
3825.856147133514
 72
     1
 10
-22684.93874753846
 20
3825.856147133514
 11
-22684.93874753846
 21
-1201.261914311821
 72
     1
 10
-22684.93874753846
 20
-1201.261914311821
 11
-21925.25578928715
 21
-1201.261914311821
 97
        0
 75
     0
 76
     2
 52
0.0
 41
1.0
 77
     0
 78
     1
 53
45.0
 43
-17420.153
 44
27711.02
 45
-212.1320343559643
 46
212.1320343559643
 79
     0
 98
        1
 10
0.0
 20
0.0
1001
REVIT
1002
{
1070
     1
1000
927036
1002
}
1002
{
1070
     5
1000
711993
1002
}
1002
{
1070
     2
1000
-2000011
1002
}
1002
{
1070
     3
1000
-2000588
1002
}
  0
LINE
  5
132
330
70
100
AcDbEntity
  8
A-WALL
370
    30
100
AcDbLine
 10
-21910.25447964301
 20
3840.856147133539
 30
0.0
 11
-22684.93874753846
 21
3840.856147133539
 31
0.0
1001
REVIT
1002
{
1070
     1
1000
927036
1002
}
1002
{
1070
     5
1000
711993
1002
}
1002
{
1070
     2
1000
-2000011
1002
}
  0
LINE
  5
134
330
70
100
AcDbEntity
  8
A-WALL
370
    30
100
AcDbLine
 10
-21910.25447964301
 20
39.99999999999957
 30
0.0
 11
-21910.25447964301
 21
3840.856147133539
 31
0.0
1001
REVIT
1002
{
1070
     1
1000
927036
1002
}
1002
{
1070
     5
1000
711993
1002
}
1002
{
1070
     2
1000
-2000011
1002
}
  0
LINE
  5
135
330
70
100
AcDbEntity
  8
A-WALL
370
    20
100
AcDbLine
 10
-21925.25578928714
 20
3825.856147133544
 30
0.0
 11
-22699.93909530697
 21
3825.856147133544
 31
0.0
1001
REVIT
1002
{
1070
     1
1000
927036
1002
}
1002
{
1070
     5
1000
711993
1002
}
1002
{
1070
     2
1000
-2000011
1002
}
1002
{
1070
     3
1000
-2000586
1002
}
  0
LINE
  5
136
330
70
100
AcDbEntity
  8
A-WALL
370
    20
100
AcDbLine
 10
-21925.25578928715
 20
-1201.261914311821
 30
0.0
 11
-21925.25578928714
 21
3825.856147133544
 31
0.0
1001
REVIT
1002
{
1070
     1
1000
927036
1002
}
1002
{
1070
     5
1000
711993
1002
}
1002
{
1070
     2
1000
-2000011
1002
}
1002
{
1070
     3
1000
-2000586
1002
}
  0
HATCH
  5
13F
330
70
100
AcDbEntity
  8
A-WALL-PATT
370
     9
100
AcDbHatch
 10
0.0
 20
0.0
 30
0.0
210
0.0
220
0.0
230
1.0
  2
FP_1
 70
     0
 71
     0
 91
        1
 92
        1
 93
        6
 72
     1
 10
-3511.508737997845
 20
-1201.261914311821
 11
-2896.213565339584
 21
-1201.261914311821
 72
     1
 10
-2896.213565339584
 20
-1201.261914311821
 11
-2756.17670800015
 21
6091.760348026869
 72
     1
 10
-2756.17670800015
 20
6091.760348026869
 11
-3566.347287412599
 21
6091.759782799108
 72
     1
 10
-3566.347287412599
 20
6091.759782799108
 11
-3683.318121308877
 21
-1201.261914311821
 72
     1
 10
-3683.318121308877
 20
-1201.261914311821
 11
-2411.599652450037
 21
-1201.261914311821
 72
     1
 10
-2411.599652450037
 20
-1201.261914311821
 11
-3511.508737997845
 21
-1201.261914311821
 97
        0
 75
     0
 76
     2
 52
0.0
 41
1.0
 77
     0
 78
     1
 53
45.0
 43
-17420.153
 44
27711.02
 45
-212.1320343559643
 46
212.1320343559643
 79
     0
 98
        1
 10
0.0
 20
0.0
1001
REVIT
1002
{
1070
     1
1000
930316
1002
}
1002
{
1070
     5
1000
1325379
1002
}
1002
{
1070
     2
1000
-2000011
1002
}
1002
{
1070
     3
1000
-2000588
1002
}
  0
LINE
  5
141
330
70
100
AcDbEntity
  8
A-WALL
370
    30
100
AcDbLine
 10
-2876.20935377022
 20
-1201.261914311821
 30
0.0
 11
-2736.172496162817
 21
6091.76036198314
 31
0.0
1001
REVIT
1002
{
1070
     1
1000
930316
1002
}
1002
{
1070
     5
1000
1325379
1002
}
1002
{
1070
     2
1000
-2000011
1002
}
  0
LINE
  5
142
330
70
100
AcDbEntity
  8
A-WALL
370
    30
100
AcDbLine
 10
-2736.172496162817
 20
6091.76036198314
 30
0.0
 11
-3511.508737997854
 21
6091.759821058081
 31
0.0
1001
REVIT
1002
{
1070
     1
1000
930316
1002
}
1002
{
1070
     5
1000
1325379
1002
}
1002
{
1070
     2
1000
-2000011
1002
}
  0
LINE
  5
145
330
70
100
AcDbEntity
  8
A-WALL
100
AcDbLine
 10
-3511.508737997854
 20
6091.759821058086
 30
0.0
 11
-3566.347287412611
 21
6091.759782799138
 31
0.0
1001
REVIT
1002
{
1070
     1
1000
930316
1002
}
1002
{
1070
     5
1000
1325379
1002
}
1002
{
1070
     2
1000
-2000011
1002
}
  0
LINE
  5
147
330
70
100
AcDbEntity
  8
A-WALL
370
    20
100
AcDbLine
 10
-2756.176708000162
 20
6091.760348026897
 30
0.0
 11
-2896.213565339584
 21
-1201.261914311821
 31
0.0
1001
REVIT
1002
{
1070
     1
1000
930316
1002
}
1002
{
1070
     5
1000
1325379
1002
}
1002
{
1070
     2
1000
-2000011
1002
}
1002
{
1070
     3
1000
-2000586
1002
}
  0
HATCH
  5
151
330
70
100
AcDbEntity
  8
A-WALL-PATT
370
     9
100
AcDbHatch
 10
0.0
 20
0.0
 30
0.0
210
0.0
220
0.0
230
1.0
  2
FP_1
 70
     0
 71
     0
 91
        1
 92
        1
 93
        5
 72
     1
 10
-4122.74974034097
 20
-1201.261914311821
 11
-3702.99590763379
 21
-1201.261914311821
 72
     1
 10
-3702.99590763379
 20
-1201.261914311821
 11
-3586.707753079541
 21
6073.2063168469
 72
     1
 10
-3586.707753079541
 20
6073.2063168469
 11
-4380.394764528139
 21
6073.2063168469
 72
     1
 10
-4380.394764528139
 20
6073.2063168469
 11
-4380.394764528139
 21
-1201.261914311821
 72
     1
 10
-4380.394764528139
 20
-1201.261914311821
 11
-4122.74974034097
 21
-1201.261914311821
 97
        0
 75
     0
 76
     2
 52
0.0
 41
1.0
 77
     0
 78
     1
 53
45.0
 43
-17420.153
 44
27711.02
 45
-212.1320343559643
 46
212.1320343559643
 79
     0
 98
        1
 10
0.0
 20
0.0
1001
REVIT
1002
{
1070
     1
1000
933327
1002
}
1002
{
1070
     5
1000
711993
1002
}
1002
{
1070
     2
1000
-2000011
1002
}
1002
{
1070
     3
1000
-2000588
1002
}
  0
LINE
  5
152
330
70
100
AcDbEntity
  8
A-WALL
370
    30
100
AcDbLine
 10
-3511.508737997854
 20
6093.206316846931
 30
0.0
 11
-4400.395289563804
 21
6093.206316846931
 31
0.0
1001
REVIT
1002
{
1070
     1
1000
933327
1002
}
1002
{
1070
     5
1000
711993
1002
}
1002
{
1070
     2
1000
-2000011
1002
}
  0
LINE
  5
153
330
70
100
AcDbEntity
  8
A-WALL
370
    30
100
AcDbLine
 10
-4400.395289563804
 20
6093.206316846931
 30
0.0
 11
-4400.395289563804
 21
-2.999999999999316
 31
0.0
1001
REVIT
1002
{
1070
     1
1000
933327
1002
}
1002
{
1070
     5
1000
711993
1002
}
1002
{
1070
     2
1000
-2000011
1002
}
  0
LINE
  5
155
330
70
100
AcDbEntity
  8
A-WALL
370
    30
100
AcDbLine
 10
-3511.508737997854
 20
-2.999999999999316
 30
0.0
 11
-3511.508737997854
 21
0.0000000000259888
 31
0.0
1001
REVIT
1002
{
1070
     1
1000
933327
1002
}
1002
{
1070
     5
1000
711993
1002
}
1002
{
1070
     2
1000
-2000011
1002
}
  0
LINE
  5
156
330
70
100
AcDbEntity
  8
A-WALL
370
    30
100
AcDbLine
 10
-3511.508737997854
 20
6091.759821058076
 30
0.0
 11
-3511.508737997854
 21
6093.206316846931
 31
0.0
1001
REVIT
1002
{
1070
     1
1000
933327
1002
}
1002
{
1070
     5
1000
711993
1002
}
1002
{
1070
     2
1000
-2000011
1002
}
  0
LINE
  5
157
330
70
100
AcDbEntity
  8
A-WALL
100
AcDbLine
 10
-3566.34728741261
 20
6091.759782799135
 30
0.0
 11
-3511.508737997854
 21
6091.759821058076
 31
0.0
1001
REVIT
1002
{
1070
     1
1000
933327
1002
}
1002
{
1070
     5
1000
711993
1002
}
1002
{
1070
     2
1000
-2000011
1002
}
  0
LINE
  5
15D
330
70
100
AcDbEntity
  8
A-WALL
100
AcDbLine
 10
-4403.22186180752
 20
6093.206316846931
 30
0.0
 11
-4400.395289563804
 21
6093.206316846931
 31
0.0
1001
REVIT
1002
{
1070
     1
1000
933327
1002
}
1002
{
1070
     5
1000
711993
1002
}
1002
{
1070
     2
1000
-2000011
1002
}
  0
LINE
  5
15E
330
70
100
AcDbEntity
  8
A-WALL
100
AcDbLine
 10
-4403.22186180752
 20
6093.206316846931
 30
0.0
 11
-4403.22186180752
 21
-1201.261914311821
 31
0.0
1001
REVIT
1002
{
1070
     1
1000
933327
1002
}
1002
{
1070
     5
1000
711993
1002
}
1002
{
1070
     2
1000
-2000011
1002
}
  0
LINE
  5
161
330
70
100
AcDbEntity
  8
A-FLOR
370
    30
100
AcDbLine
 10
-16149.50449405117
 20
39.99999999999957
 30
0.0
 11
-21925.25578928715
 21
39.99999999999955
 31
0.0
1001
REVIT
1002
{
1070
     1
1000
933422
1002
}
1002
{
1070
     5
1000
1666129
1002
}
1002
{
1070
     2
1000
-2000032
1002
}
  0
LINE
  5
163
330
70
100
AcDbEntity
  8
A-FLOR
370
    30
100
AcDbLine
 10
-25448.82996060087
 20
164.1530242981593
 30
0.0
 11
-26687.94745651983
 21
85.10608881205785
 31
0.0
1001
REVIT
1002
{
1070
     1
1000
1187025
1002
}
1002
{
1070
     5
1000
1187027
1002
}
1002
{
1070
     2
1000
-2000032
1002
}
  0
LINE
  5
164
330
70
100
AcDbEntity
  8
A-FLOR
370
    30
100
AcDbLine
 10
-26687.94745651983
 20
85.10608881205785
 30
0.0
 11
-28526.54858352744
 21
86.12194164134606
 31
0.0
1001
REVIT
1002
{
1070
     1
1000
1187025
1002
}
1002
{
1070
     5
1000
1187027
1002
}
1002
{
1070
     2
1000
-2000032
1002
}
  0
LINE
  5
16A
330
70
100
AcDbEntity
  8
A-FLOR
370
    30
100
AcDbLine
 10
-23454.95709121571
 20
317.5283075311743
 30
0.0
 11
-24003.58116879147
 21
304.5428226782588
 31
0.0
1001
REVIT
1002
{
1070
     1
1000
1194299
1002
}
1002
{
1070
     5
1000
1194301
1002
}
1002
{
1070
     2
1000
-2000032
1002
}
  0
LINE
  5
16B
330
70
100
AcDbEntity
  8
A-FLOR
370
    30
100
AcDbLine
 10
-24003.58116879147
 20
304.5428226782588
 30
0.0
 11
-25448.82996060087
 21
271.8591533118015
 31
0.0
1001
REVIT
1002
{
1070
     1
1000
1194299
1002
}
1002
{
1070
     5
1000
1194301
1002
}
1002
{
1070
     2
1000
-2000032
1002
}
  0
LINE
  5
16F
330
70
100
AcDbEntity
  8
A-FLOR
370
    30
100
AcDbLine
 10
2710.313895954512
 20
-38.5513501536319
 30
0.0
 11
2578.735286892712
 21
-37.54469852604592
 31
0.0
1001
REVIT
1002
{
1070
     1
1000
1206785
1002
}
1002
{
1070
     5
1000
1187027
1002
}
1002
{
1070
     2
1000
-2000032
1002
}
  0
LINE
  5
170
330
70
100
AcDbEntity
  8
A-FLOR
370
    30
100
AcDbLine
 10
2578.735286892712
 20
-37.54469852604592
 30
0.0
 11
1628.935471726854
 21
-19.57714264530845
 31
0.0
1001
REVIT
1002
{
1070
     1
1000
1206785
1002
}
1002
{
1070
     5
1000
1187027
1002
}
1002
{
1070
     2
1000
-2000032
1002
}
  0
LINE
  5
171
330
70
100
AcDbEntity
  8
A-FLOR
370
    30
100
AcDbLine
 10
1628.935339684008
 20
-19.57714014742714
 30
0.0
 11
533.9419090166606
 21
-1.636174063752601
 31
0.0
1001
REVIT
1002
{
1070
     1
1000
1206785
1002
}
1002
{
1070
     5
1000
1187027
1002
}
1002
{
1070
     2
1000
-2000032
1002
}
  0
LINE
  5
172
330
70
100
AcDbEntity
  8
A-FLOR
370
    30
100
AcDbLine
 10
533.9418666235497
 20
-1.636173369160883
 30
0.0
 11
-287.4030912239097
 21
8.073022746631535
 31
0.0
1001
REVIT
1002
{
1070
     1
1000
1206785
1002
}
1002
{
1070
     5
1000
1187027
1002
}
1002
{
1070
     2
1000
-2000032
1002
}
  0
LINE
  5
173
330
70
100
AcDbEntity
  8
A-FLOR
370
    30
100
AcDbLine
 10
-287.4031610643019
 20
8.073022880975209
 30
0.0
 11
-1305.105320088191
 21
10.03065577274541
 31
0.0
1001
REVIT
1002
{
1070
     1
1000
1206785
1002
}
1002
{
1070
     5
1000
1187027
1002
}
1002
{
1070
     2
1000
-2000032
1002
}
  0
LINE
  5
174
330
70
100
AcDbEntity
  8
A-FLOR
370
    30
100
AcDbLine
 10
-1305.105320088191
 20
10.03065577274541
 30
0.0
 11
-2228.083555059301
 21
14.10949289341717
 31
0.0
1001
REVIT
1002
{
1070
     1
1000
1206785
1002
}
1002
{
1070
     5
1000
1187027
1002
}
1002
{
1070
     2
1000
-2000032
1002
}
  0
LINE
  5
175
330
70
100
AcDbEntity
  8
A-FLOR
370
    30
100
AcDbLine
 10
-2228.083634888917
 20
14.10949265574916
 30
0.0
 11
-2852.908136990574
 21
12.24927083033363
 31
0.0
1001
REVIT
1002
{
1070
     1
1000
1206785
1002
}
1002
{
1070
     5
1000
1187027
1002
}
1002
{
1070
     2
1000
-2000032
1002
}
  0
LINE
  5
1A0
330
70
100
AcDbEntity
  8
A-ROOF
370
    30
100
AcDbLine
 10
-23826.88271540112
 20
6819.999993896485
 30
0.0
 11
-23826.88271540112
 21
6629.999999999995
 31
0.0
1001
REVIT
1002
{
1070
     1
1000
1312129
1002
}
1002
{
1070
     5
1000
915311
1002
}
1002
{
1070
     2
1000
-2000035
1002
}
  0
LINE
  5
1A1
330
70
100
AcDbEntity
  8
A-ROOF
370
    30
100
AcDbLine
 10
-23826.88271540112
 20
6629.999999999995
 30
0.0
 11
-23826.06291829406
 21
6630.367345407069
 31
0.0
1001
REVIT
1002
{
1070
     1
1000
1312129
1002
}
1002
{
1070
     5
1000
915311
1002
}
1002
{
1070
     2
1000
-2000035
1002
}
  0
LINE
  5
1A2
330
70
100
AcDbEntity
  8
A-ROOF
370
    30
100
AcDbLine
 10
-23826.06291829406
 20
6630.367345407069
 30
0.0
 11
-22977.96582030749
 21
7040.338569863862
 31
0.0
1001
REVIT
1002
{
1070
     1
1000
1312129
1002
}
1002
{
1070
     5
1000
915311
1002
}
1002
{
1070
     2
1000
-2000035
1002
}
  0
LINE
  5
1A3
330
70
100
AcDbEntity
  8
A-ROOF
370
    30
100
AcDbLine
 10
-22977.96582030749
 20
7040.338569863862
 30
0.0
 11
-21418.81889876321
 21
7789.999999999992
 31
0.0
1001
REVIT
1002
{
1070
     1
1000
1312129
1002
}
1002
{
1070
     5
1000
915311
1002
}
1002
{
1070
     2
1000
-2000035
1002
}
  0
LINE
  5
1A4
330
70
100
AcDbEntity
  8
A-ROOF
370
    30
100
AcDbLine
 10
-21418.8180211752
 20
7790.000441813261
 30
0.0
 11
-19730.43649392548
 21
8639.999921436974
 31
0.0
1001
REVIT
1002
{
1070
     1
1000
1312129
1002
}
1002
{
1070
     5
1000
915311
1002
}
1002
{
1070
     2
1000
-2000035
1002
}
  0
LINE
  5
1A5
330
70
100
AcDbEntity
  8
A-ROOF
370
    30
100
AcDbLine
 10
-19730.4363378732
 20
8639.999999999998
 30
0.0
 11
-18312.8940860815
 21
9369.999860322772
 31
0.0
1001
REVIT
1002
{
1070
     1
1000
1312129
1002
}
1002
{
1070
     5
1000
915311
1002
}
1002
{
1070
     2
1000
-2000035
1002
}
  0
LINE
  5
1A6
330
70
100
AcDbEntity
  8
A-ROOF
370
    30
100
AcDbLine
 10
-18312.89381485081
 20
9369.999999999995
 30
0.0
 11
-16604.3079947571
 21
10279.99999999999
 31
0.0
1001
REVIT
1002
{
1070
     1
1000
1312129
1002
}
1002
{
1070
     5
1000
915311
1002
}
1002
{
1070
     2
1000
-2000035
1002
}
  0
LINE
  5
1A7
330
70
100
AcDbEntity
  8
A-ROOF
370
    30
100
AcDbLine
 10
-16604.3079947571
 20
10280.0
 30
0.0
 11
-14935.74790079432
 21
11149.99999999999
 31
0.0
1001
REVIT
1002
{
1070
     1
1000
1312129
1002
}
1002
{
1070
     5
1000
915311
1002
}
1002
{
1070
     2
1000
-2000035
1002
}
  0
LINE
  5
1A8
330
70
100
AcDbEntity
  8
A-ROOF
370
    30
100
AcDbLine
 10
-14935.74769196269
 20
11150.00011461708
 30
0.0
 11
-13715.01197476223
 21
11819.99999999999
 31
0.0
1001
REVIT
1002
{
1070
     1
1000
1312129
1002
}
1002
{
1070
     5
1000
915311
1002
}
1002
{
1070
     2
1000
-2000035
1002
}
  0
LINE
  5
1A9
330
70
100
AcDbEntity
  8
A-ROOF
370
    30
100
AcDbLine
 10
-13715.01197476223
 20
11820.0
 30
0.0
 11
-13157.97148501734
 21
12039.99999999999
 31
0.0
1001
REVIT
1002
{
1070
     1
1000
1312129
1002
}
1002
{
1070
     5
1000
915311
1002
}
1002
{
1070
     2
1000
-2000035
1002
}
  0
LINE
  5
1AA
330
70
100
AcDbEntity
  8
A-ROOF
370
    30
100
AcDbLine
 10
-13157.97148501734
 20
12039.99999999999
 30
0.0
 11
-12633.33287597558
 21
11840.0
 31
0.0
1001
REVIT
1002
{
1070
     1
1000
1312129
1002
}
1002
{
1070
     5
1000
915311
1002
}
1002
{
1070
     2
1000
-2000035
1002
}
  0
LINE
  5
1AB
330
70
100
AcDbEntity
  8
A-ROOF
370
    30
100
AcDbLine
 10
-12633.33287597558
 20
11840.0
 30
0.0
 11
-11681.6358397934
 21
11330.00028466453
 31
0.0
1001
REVIT
1002
{
1070
     1
1000
1312129
1002
}
1002
{
1070
     5
1000
915311
1002
}
1002
{
1070
     2
1000
-2000035
1002
}
  0
LINE
  5
1AC
330
70
100
AcDbEntity
  8
A-ROOF
370
    30
100
AcDbLine
 10
-11681.6353085884
 20
11329.99999999999
 30
0.0
 11
-9768.81920677463
 21
10309.99999999999
 31
0.0
1001
REVIT
1002
{
1070
     1
1000
1312129
1002
}
1002
{
1070
     5
1000
915311
1002
}
1002
{
1070
     2
1000
-2000035
1002
}
  0
LINE
  5
1AD
330
70
100
AcDbEntity
  8
A-ROOF
370
    30
100
AcDbLine
 10
-9768.81920677463
 20
10310.0
 30
0.0
 11
-7993.529154251326
 21
9350.000026852461
 31
0.0
1001
REVIT
1002
{
1070
     1
1000
1312129
1002
}
1002
{
1070
     5
1000
915311
1002
}
1002
{
1070
     2
1000
-2000035
1002
}
  0
LINE
  5
1AE
330
70
100
AcDbEntity
  8
A-ROOF
370
    30
100
AcDbLine
 10
-7993.529104594124
 20
9349.999999999997
 30
0.0
 11
-6286.672488907277
 21
8490.00001255043
 31
0.0
1001
REVIT
1002
{
1070
     1
1000
1312129
1002
}
1002
{
1070
     5
1000
915311
1002
}
1002
{
1070
     2
1000
-2000035
1002
}
  0
LINE
  5
1AF
330
70
100
AcDbEntity
  8
A-ROOF
370
    30
100
AcDbLine
 10
-6286.67246399822
 20
8489.999999999998
 30
0.0
 11
-4665.327472260552
 21
7689.999999999997
 31
0.0
1001
REVIT
1002
{
1070
     1
1000
1312129
1002
}
1002
{
1070
     5
1000
915311
1002
}
1002
{
1070
     2
1000
-2000035
1002
}
  0
LINE
  5
1B0
330
70
100
AcDbEntity
  8
A-ROOF
370
    30
100
AcDbLine
 10
-4665.327396245994
 20
7689.999969397586
 30
0.0
 11
-3548.767370704862
 21
7240.488328544867
 31
0.0
1001
REVIT
1002
{
1070
     1
1000
1312129
1002
}
1002
{
1070
     5
1000
915311
1002
}
1002
{
1070
     2
1000
-2000035
1002
}
  0
LINE
  5
1B1
330
70
100
AcDbEntity
  8
A-ROOF
370
    30
100
AcDbLine
 10
-3548.767370704862
 20
7240.488328544867
 30
0.0
 11
-3547.521959713617
 21
7239.934712957652
 31
0.0
1001
REVIT
1002
{
1070
     1
1000
1312129
1002
}
1002
{
1070
     5
1000
915311
1002
}
1002
{
1070
     2
1000
-2000035
1002
}
  0
LINE
  5
1B2
330
70
100
AcDbEntity
  8
A-ROOF
370
    30
100
AcDbLine
 10
-3547.521959713617
 20
7239.934712957652
 30
0.0
 11
-3547.521959713617
 21
7429.934712957653
 31
0.0
1001
REVIT
1002
{
1070
     1
1000
1312129
1002
}
1002
{
1070
     5
1000
915311
1002
}
1002
{
1070
     2
1000
-2000035
1002
}
  0
LINE
  5
1B3
330
70
100
AcDbEntity
  8
A-ROOF
370
    30
100
AcDbLine
 10
-3547.521959713617
 20
7429.934712957653
 30
0.0
 11
-3548.767370704862
 21
7430.488328544868
 31
0.0
1001
REVIT
1002
{
1070
     1
1000
1312129
1002
}
1002
{
1070
     5
1000
915311
1002
}
1002
{
1070
     2
1000
-2000035
1002
}
  0
LINE
  5
1B4
330
70
100
AcDbEntity
  8
A-ROOF
370
    30
100
AcDbLine
 10
-3548.767370704862
 20
7430.488328544868
 30
0.0
 11
-4665.327396245994
 21
7879.999969397587
 31
0.0
1001
REVIT
1002
{
1070
     1
1000
1312129
1002
}
1002
{
1070
     5
1000
915311
1002
}
1002
{
1070
     2
1000
-2000035
1002
}
  0
LINE
  5
1B5
330
70
100
AcDbEntity
  8
A-ROOF
370
    30
100
AcDbLine
 10
-4665.327472260552
 20
7879.999999999997
 30
0.0
 11
-6286.67246399822
 21
8679.999999999997
 31
0.0
1001
REVIT
1002
{
1070
     1
1000
1312129
1002
}
1002
{
1070
     5
1000
915311
1002
}
1002
{
1070
     2
1000
-2000035
1002
}
  0
LINE
  5
1B6
330
70
100
AcDbEntity
  8
A-ROOF
370
    30
100
AcDbLine
 10
-6286.672488907277
 20
8680.000012550427
 30
0.0
 11
-7993.529104594124
 21
9539.999999999997
 31
0.0
1001
REVIT
1002
{
1070
     1
1000
1312129
1002
}
1002
{
1070
     5
1000
915311
1002
}
1002
{
1070
     2
1000
-2000035
1002
}
  0
LINE
  5
1B7
330
70
100
AcDbEntity
  8
A-ROOF
370
    30
100
AcDbLine
 10
-7993.529154251326
 20
9540.000026852462
 30
0.0
 11
-9768.81920677463
 21
10500.0
 31
0.0
1001
REVIT
1002
{
1070
     1
1000
1312129
1002
}
1002
{
1070
     5
1000
915311
1002
}
1002
{
1070
     2
1000
-2000035
1002
}
  0
LINE
  5
1B8
330
70
100
AcDbEntity
  8
A-ROOF
370
    30
100
AcDbLine
 10
-9768.81920677463
 20
10499.99999999999
 30
0.0
 11
-11681.6353085884
 21
11519.99999999999
 31
0.0
1001
REVIT
1002
{
1070
     1
1000
1312129
1002
}
1002
{
1070
     5
1000
915311
1002
}
1002
{
1070
     2
1000
-2000035
1002
}
  0
LINE
  5
1B9
330
70
100
AcDbEntity
  8
A-ROOF
370
    30
100
AcDbLine
 10
-11681.6358397934
 20
11520.00028466453
 30
0.0
 11
-12633.33287597558
 21
12030.0
 31
0.0
1001
REVIT
1002
{
1070
     1
1000
1312129
1002
}
1002
{
1070
     5
1000
915311
1002
}
1002
{
1070
     2
1000
-2000035
1002
}
  0
LINE
  5
1BA
330
70
100
AcDbEntity
  8
A-ROOF
370
    30
100
AcDbLine
 10
-12633.33287597558
 20
12030.0
 30
0.0
 11
-13157.97148501734
 21
12229.99999999999
 31
0.0
1001
REVIT
1002
{
1070
     1
1000
1312129
1002
}
1002
{
1070
     5
1000
915311
1002
}
1002
{
1070
     2
1000
-2000035
1002
}
  0
LINE
  5
1BB
330
70
100
AcDbEntity
  8
A-ROOF
370
    30
100
AcDbLine
 10
-13157.97148501734
 20
12229.99999999999
 30
0.0
 11
-13715.01197476223
 21
12010.0
 31
0.0
1001
REVIT
1002
{
1070
     1
1000
1312129
1002
}
1002
{
1070
     5
1000
915311
1002
}
1002
{
1070
     2
1000
-2000035
1002
}
  0
LINE
  5
1BC
330
70
100
AcDbEntity
  8
A-ROOF
370
    30
100
AcDbLine
 10
-13715.01197476223
 20
12009.99999999999
 30
0.0
 11
-14935.74769196269
 21
11340.00011461708
 31
0.0
1001
REVIT
1002
{
1070
     1
1000
1312129
1002
}
1002
{
1070
     5
1000
915311
1002
}
1002
{
1070
     2
1000
-2000035
1002
}
  0
LINE
  5
1BD
330
70
100
AcDbEntity
  8
A-ROOF
370
    30
100
AcDbLine
 10
-14935.74790079432
 20
11339.99999999999
 30
0.0
 11
-16604.3079947571
 21
10470.0
 31
0.0
1001
REVIT
1002
{
1070
     1
1000
1312129
1002
}
1002
{
1070
     5
1000
915311
1002
}
1002
{
1070
     2
1000
-2000035
1002
}
  0
LINE
  5
1BE
330
70
100
AcDbEntity
  8
A-ROOF
370
    30
100
AcDbLine
 10
-16604.3079947571
 20
10469.99999999999
 30
0.0
 11
-18312.89381485081
 21
9559.999999999996
 31
0.0
1001
REVIT
1002
{
1070
     1
1000
1312129
1002
}
1002
{
1070
     5
1000
915311
1002
}
1002
{
1070
     2
1000
-2000035
1002
}
  0
LINE
  5
1BF
330
70
100
AcDbEntity
  8
A-ROOF
370
    30
100
AcDbLine
 10
-18312.8940860815
 20
9559.99986032277
 30
0.0
 11
-19730.4363378732
 21
8829.999999999998
 31
0.0
1001
REVIT
1002
{
1070
     1
1000
1312129
1002
}
1002
{
1070
     5
1000
915311
1002
}
1002
{
1070
     2
1000
-2000035
1002
}
  0
LINE
  5
1C0
330
70
100
AcDbEntity
  8
A-ROOF
370
    30
100
AcDbLine
 10
-19730.43649392548
 20
8829.999921436975
 30
0.0
 11
-21418.8180211752
 21
7980.00044181326
 31
0.0
1001
REVIT
1002
{
1070
     1
1000
1312129
1002
}
1002
{
1070
     5
1000
915311
1002
}
1002
{
1070
     2
1000
-2000035
1002
}
  0
LINE
  5
1C1
330
70
100
AcDbEntity
  8
A-ROOF
370
    30
100
AcDbLine
 10
-21418.81889876321
 20
7979.999999999993
 30
0.0
 11
-22977.96681430688
 21
7230.338091933919
 31
0.0
1001
REVIT
1002
{
1070
     1
1000
1312129
1002
}
1002
{
1070
     5
1000
915311
1002
}
1002
{
1070
     2
1000
-2000035
1002
}
  0
LINE
  5
1C2
330
70
100
AcDbEntity
  8
A-ROOF
370
    30
100
AcDbLine
 10
-22977.96681430688
 20
7230.338091933919
 30
0.0
 11
-22978.84461640236
 21
7229.981205796971
 31
0.0
1001
REVIT
1002
{
1070
     1
1000
1312129
1002
}
1002
{
1070
     5
1000
915311
1002
}
1002
{
1070
     2
1000
-2000035
1002
}
  0
LINE
  5
1C3
330
70
100
AcDbEntity
  8
A-ROOF
370
    30
100
AcDbLine
 10
-22978.84461640236
 20
7229.981205796971
 30
0.0
 11
-23826.06291829406
 21
6820.367345407068
 31
0.0
1001
REVIT
1002
{
1070
     1
1000
1312129
1002
}
1002
{
1070
     5
1000
915311
1002
}
1002
{
1070
     2
1000
-2000035
1002
}
  0
LINE
  5
1C4
330
70
100
AcDbEntity
  8
A-ROOF
100
AcDbLine
 10
-3547.521959713617
 20
7239.934712957654
 30
0.0
 11
-3551.150813048979
 21
7233.053516137549
 31
0.0
1001
REVIT
1002
{
1070
     1
1000
1312129
1002
}
1002
{
1070
     5
1000
915311
1002
}
1002
{
1070
     2
1000
-2000035
1002
}
  0
LINE
  5
1C5
330
70
100
AcDbEntity
  8
A-ROOF
100
AcDbLine
 10
-3548.767370704864
 20
7240.488328544867
 30
0.0
 11
-3843.252817936559
 21
7352.850482766704
 31
0.0
1001
REVIT
1002
{
1070
     1
1000
1312129
1002
}
1002
{
1070
     5
1000
915311
1002
}
1002
{
1070
     2
1000
-2000035
1002
}
1002
{
1070
     3
1000
-2000598
1002
}
  0
LINE
  5
1C6
330
70
100
AcDbEntity
  8
A-ROOF
100
AcDbLine
 10
-23826.06291829406
 20
6630.367345407066
 30
0.0
 11
-23641.03091465426
 21
6715.940587976276
 31
0.0
1001
REVIT
1002
{
1070
     1
1000
1312129
1002
}
1002
{
1070
     5
1000
915311
1002
}
1002
{
1070
     2
1000
-2000035
1002
}
1002
{
1070
     3
1000
-2000598
1002
}
  0
LINE
  5
1C7
330
70
100
AcDbEntity
  8
A-ROOF
370
    30
100
AcDbLine
 10
-22886.45782126784
 20
7379.999999999999
 30
0.0
 11
-22886.45782126784
 21
7279.999999999995
 31
0.0
1001
REVIT
1002
{
1070
     1
1000
1350298
1002
}
1002
{
1070
     5
1000
1350280
1002
}
1002
{
1070
     2
1000
-2000035
1002
}
  0
LINE
  5
1C8
330
70
100
AcDbEntity
  8
A-ROOF
370
    30
100
AcDbLine
 10
-22886.45782126784
 20
7279.999999999995
 30
0.0
 11
-21418.81889876321
 21
7979.999999999996
 31
0.0
1001
REVIT
1002
{
1070
     1
1000
1350298
1002
}
1002
{
1070
     5
1000
1350280
1002
}
1002
{
1070
     2
1000
-2000035
1002
}
  0
LINE
  5
1D6
330
70
100
AcDbEntity
  8
A-ROOF
370
    30
100
AcDbLine
 10
-2277.732177622038
 20
6899.999999999995
 30
0.0
 11
-2277.732177622038
 21
6999.999999999999
 31
0.0
1001
REVIT
1002
{
1070
     1
1000
1350298
1002
}
1002
{
1070
     5
1000
1350280
1002
}
1002
{
1070
     2
1000
-2000035
1002
}
  0
LINE
  5
1D7
330
70
100
AcDbEntity
  8
A-ROOF
370
    30
100
AcDbLine
 10
-2277.732177622038
 20
6999.999999999999
 30
0.0
 11
-4665.327472260552
 21
7979.999999999996
 31
0.0
1001
REVIT
1002
{
1070
     1
1000
1350298
1002
}
1002
{
1070
     5
1000
1350280
1002
}
1002
{
1070
     2
1000
-2000035
1002
}
  0
LINE
  5
1D8
330
70
100
AcDbEntity
  8
A-ROOF
370
    30
100
AcDbLine
 10
-4665.327472260552
 20
7980.000000000001
 30
0.0
 11
-6286.67246399822
 21
8779.999999999999
 31
0.0
1001
REVIT
1002
{
1070
     1
1000
1350298
1002
}
1002
{
1070
     5
1000
1350280
1002
}
1002
{
1070
     2
1000
-2000035
1002
}
  0
LINE
  5
1D9
330
70
100
AcDbEntity
  8
A-ROOF
370
    30
100
AcDbLine
 10
-6286.67246399822
 20
8779.999999999999
 30
0.0
 11
-7993.529104594124
 21
9640.0
 31
0.0
1001
REVIT
1002
{
1070
     1
1000
1350298
1002
}
1002
{
1070
     5
1000
1350280
1002
}
1002
{
1070
     2
1000
-2000035
1002
}
  0
LINE
  5
1DA
330
70
100
AcDbEntity
  8
A-ROOF
370
    30
100
AcDbLine
 10
-7993.529104594124
 20
9639.999999999998
 30
0.0
 11
-9768.81920677463
 21
10600.0
 31
0.0
1001
REVIT
1002
{
1070
     1
1000
1350298
1002
}
1002
{
1070
     5
1000
1350280
1002
}
1002
{
1070
     2
1000
-2000035
1002
}
  0
LINE
  5
1DB
330
70
100
AcDbEntity
  8
A-ROOF
370
    30
100
AcDbLine
 10
-9768.81920677463
 20
10600.0
 30
0.0
 11
-11681.6353085884
 21
11619.99999999999
 31
0.0
1001
REVIT
1002
{
1070
     1
1000
1350298
1002
}
1002
{
1070
     5
1000
1350280
1002
}
1002
{
1070
     2
1000
-2000035
1002
}
  0
LINE
  5
1DC
330
70
100
AcDbEntity
  8
A-ROOF
370
    30
100
AcDbLine
 10
-11681.6353085884
 20
11619.99999999999
 30
0.0
 11
-12633.33287597558
 21
12129.99999999999
 31
0.0
1001
REVIT
1002
{
1070
     1
1000
1350298
1002
}
1002
{
1070
     5
1000
1350280
1002
}
1002
{
1070
     2
1000
-2000035
1002
}
  0
LINE
  5
1DD
330
70
100
AcDbEntity
  8
A-ROOF
370
    30
100
AcDbLine
 10
-12633.33287597558
 20
12129.99999999999
 30
0.0
 11
-13157.97148501734
 21
12329.99999999999
 31
0.0
1001
REVIT
1002
{
1070
     1
1000
1350298
1002
}
1002
{
1070
     5
1000
1350280
1002
}
1002
{
1070
     2
1000
-2000035
1002
}
  0
LINE
  5
1DE
330
70
100
AcDbEntity
  8
A-ROOF
370
    30
100
AcDbLine
 10
-13157.97148501734
 20
12329.99999999999
 30
0.0
 11
-13715.01197476223
 21
12110.0
 31
0.0
1001
REVIT
1002
{
1070
     1
1000
1350298
1002
}
1002
{
1070
     5
1000
1350280
1002
}
1002
{
1070
     2
1000
-2000035
1002
}
  0
LINE
  5
1DF
330
70
100
AcDbEntity
  8
A-ROOF
370
    30
100
AcDbLine
 10
-13715.01197476223
 20
12110.0
 30
0.0
 11
-14935.74790079432
 21
11440.0
 31
0.0
1001
REVIT
1002
{
1070
     1
1000
1350298
1002
}
1002
{
1070
     5
1000
1350280
1002
}
1002
{
1070
     2
1000
-2000035
1002
}
  0
LINE
  5
1E0
330
70
100
AcDbEntity
  8
A-ROOF
370
    30
100
AcDbLine
 10
-14935.74790079432
 20
11440.0
 30
0.0
 11
-16604.3079947571
 21
10569.99999999999
 31
0.0
1001
REVIT
1002
{
1070
     1
1000
1350298
1002
}
1002
{
1070
     5
1000
1350280
1002
}
1002
{
1070
     2
1000
-2000035
1002
}
  0
LINE
  5
1E1
330
70
100
AcDbEntity
  8
A-ROOF
370
    30
100
AcDbLine
 10
-16604.3079947571
 20
10569.99999999999
 30
0.0
 11
-18312.89381485081
 21
9659.999999999996
 31
0.0
1001
REVIT
1002
{
1070
     1
1000
1350298
1002
}
1002
{
1070
     5
1000
1350280
1002
}
1002
{
1070
     2
1000
-2000035
1002
}
  0
LINE
  5
1E2
330
70
100
AcDbEntity
  8
A-ROOF
370
    30
100
AcDbLine
 10
-18312.89381485081
 20
9659.999999999998
 30
0.0
 11
-19730.4363378732
 21
8929.999999999997
 31
0.0
1001
REVIT
1002
{
1070
     1
1000
1350298
1002
}
1002
{
1070
     5
1000
1350280
1002
}
1002
{
1070
     2
1000
-2000035
1002
}
  0
LINE
  5
1E3
330
70
100
AcDbEntity
  8
A-ROOF
370
    30
100
AcDbLine
 10
-19730.4363378732
 20
8929.999999999997
 30
0.0
 11
-21418.81889876321
 21
8079.999999999996
 31
0.0
1001
REVIT
1002
{
1070
     1
1000
1350298
1002
}
1002
{
1070
     5
1000
1350280
1002
}
1002
{
1070
     2
1000
-2000035
1002
}
  0
LINE
  5
1E4
330
70
100
AcDbEntity
  8
A-ROOF
370
    30
100
AcDbLine
 10
-21418.81889876321
 20
8079.999999999996
 30
0.0
 11
-22886.45782126784
 21
7379.999999999994
 31
0.0
1001
REVIT
1002
{
1070
     1
1000
1350298
1002
}
1002
{
1070
     5
1000
1350280
1002
}
1002
{
1070
     2
1000
-2000035
1002
}
  0
LINE
  5
1E6
330
70
100
AcDbEntity
  8
A-ROOF
100
AcDbLine
 10
-2277.732177622037
 20
6899.999999999997
 30
0.0
 11
-2298.561070210303
 21
6805.207934606977
 31
0.0
1001
REVIT
1002
{
1070
     1
1000
1350298
1002
}
1002
{
1070
     5
1000
1350280
1002
}
1002
{
1070
     2
1000
-2000035
1002
}
  0
LINE
  5
1E7
330
70
100
AcDbEntity
  8
A-ROOF
100
AcDbLine
 10
-2277.732177622038
 20
6899.999999999998
 30
0.0
 11
-3547.521959713621
 21
7410.168909727993
 31
0.0
1001
REVIT
1002
{
1070
     1
1000
1350298
1002
}
1002
{
1070
     5
1000
1350280
1002
}
1002
{
1070
     2
1000
-2000035
1002
}
1002
{
1070
     3
1000
-2000598
1002
}
  0
LINE
  5
1E8
330
70
100
AcDbEntity
  8
A-ROOF
100
AcDbLine
 10
-22886.45782126784
 20
7279.999999999994
 30
0.0
 11
-22829.24309613217
 21
7301.846705856968
 31
0.0
1001
REVIT
1002
{
1070
     1
1000
1350298
1002
}
1002
{
1070
     5
1000
1350280
1002
}
1002
{
1070
     2
1000
-2000035
1002
}
1002
{
1070
     3
1000
-2000598
1002
}
  0
LINE
  5
26F
330
70
100
AcDbEntity
  8
A-ROOF
370
    30
100
AcDbLine
 10
-23023.88574726704
 20
6768.259574202469
 30
0.0
 11
-21418.81889876321
 21
7539.999999999993
 31
0.0
1001
REVIT
1002
{
1070
     1
1000
1649727
1002
}
1002
{
1070
     5
1000
1649746
1002
}
1002
{
1070
     2
1000
-2000035
1002
}
  0
LINE
  5
270
330
70
100
AcDbEntity
  8
A-ROOF
370
    30
100
AcDbLine
 10
-21418.8180211752
 20
7540.000441813261
 30
0.0
 11
-19730.43649392548
 21
8389.999921436979
 31
0.0
1001
REVIT
1002
{
1070
     1
1000
1649727
1002
}
1002
{
1070
     5
1000
1649746
1002
}
1002
{
1070
     2
1000
-2000035
1002
}
  0
LINE
  5
271
330
70
100
AcDbEntity
  8
A-ROOF
370
    30
100
AcDbLine
 10
-19730.4363378732
 20
8389.999999999998
 30
0.0
 11
-18312.8940860815
 21
9119.999860322772
 31
0.0
1001
REVIT
1002
{
1070
     1
1000
1649727
1002
}
1002
{
1070
     5
1000
1649746
1002
}
1002
{
1070
     2
1000
-2000035
1002
}
  0
LINE
  5
272
330
70
100
AcDbEntity
  8
A-ROOF
370
    30
100
AcDbLine
 10
-18312.89381485081
 20
9119.999999999995
 30
0.0
 11
-16604.3079947571
 21
10029.99999999999
 31
0.0
1001
REVIT
1002
{
1070
     1
1000
1649727
1002
}
1002
{
1070
     5
1000
1649746
1002
}
1002
{
1070
     2
1000
-2000035
1002
}
  0
LINE
  5
273
330
70
100
AcDbEntity
  8
A-ROOF
370
    30
100
AcDbLine
 10
-16604.3079947571
 20
10030.0
 30
0.0
 11
-14935.74790079432
 21
10900.0
 31
0.0
1001
REVIT
1002
{
1070
     1
1000
1649727
1002
}
1002
{
1070
     5
1000
1649746
1002
}
1002
{
1070
     2
1000
-2000035
1002
}
  0
LINE
  5
274
330
70
100
AcDbEntity
  8
A-ROOF
370
    30
100
AcDbLine
 10
-14935.74769196269
 20
10900.00011461708
 30
0.0
 11
-13715.01197476223
 21
11569.99999999999
 31
0.0
1001
REVIT
1002
{
1070
     1
1000
1649727
1002
}
1002
{
1070
     5
1000
1649746
1002
}
1002
{
1070
     2
1000
-2000035
1002
}
  0
LINE
  5
275
330
70
100
AcDbEntity
  8
A-ROOF
370
    30
100
AcDbLine
 10
-13715.01197476223
 20
11570.0
 30
0.0
 11
-13157.97148501734
 21
11789.99999999999
 31
0.0
1001
REVIT
1002
{
1070
     1
1000
1649727
1002
}
1002
{
1070
     5
1000
1649746
1002
}
1002
{
1070
     2
1000
-2000035
1002
}
  0
LINE
  5
276
330
70
100
AcDbEntity
  8
A-ROOF
370
    30
100
AcDbLine
 10
-13157.97148501734
 20
11789.99999999999
 30
0.0
 11
-12633.33287597558
 21
11590.0
 31
0.0
1001
REVIT
1002
{
1070
     1
1000
1649727
1002
}
1002
{
1070
     5
1000
1649746
1002
}
1002
{
1070
     2
1000
-2000035
1002
}
  0
LINE
  5
277
330
70
100
AcDbEntity
  8
A-ROOF
370
    30
100
AcDbLine
 10
-12633.33287597558
 20
11590.0
 30
0.0
 11
-11681.6358397934
 21
11080.00028466453
 31
0.0
1001
REVIT
1002
{
1070
     1
1000
1649727
1002
}
1002
{
1070
     5
1000
1649746
1002
}
1002
{
1070
     2
1000
-2000035
1002
}
  0
LINE
  5
278
330
70
100
AcDbEntity
  8
A-ROOF
370
    30
100
AcDbLine
 10
-11681.6353085884
 20
11079.99999999999
 30
0.0
 11
-9768.81920677463
 21
10060.0
 31
0.0
1001
REVIT
1002
{
1070
     1
1000
1649727
1002
}
1002
{
1070
     5
1000
1649746
1002
}
1002
{
1070
     2
1000
-2000035
1002
}
  0
LINE
  5
279
330
70
100
AcDbEntity
  8
A-ROOF
370
    30
100
AcDbLine
 10
-9768.81920677463
 20
10060.0
 30
0.0
 11
-7993.529154251326
 21
9100.000026852461
 31
0.0
1001
REVIT
1002
{
1070
     1
1000
1649727
1002
}
1002
{
1070
     5
1000
1649746
1002
}
1002
{
1070
     2
1000
-2000035
1002
}
  0
LINE
  5
27A
330
70
100
AcDbEntity
  8
A-ROOF
370
    30
100
AcDbLine
 10
-7993.529104594124
 20
9099.999999999994
 30
0.0
 11
-6286.672488907277
 21
8240.00001255043
 31
0.0
1001
REVIT
1002
{
1070
     1
1000
1649727
1002
}
1002
{
1070
     5
1000
1649746
1002
}
1002
{
1070
     2
1000
-2000035
1002
}
  0
LINE
  5
27B
330
70
100
AcDbEntity
  8
A-ROOF
370
    30
100
AcDbLine
 10
-6286.67246399822
 20
8239.999999999998
 30
0.0
 11
-4665.327472260552
 21
7439.999999999997
 31
0.0
1001
REVIT
1002
{
1070
     1
1000
1649727
1002
}
1002
{
1070
     5
1000
1649746
1002
}
1002
{
1070
     2
1000
-2000035
1002
}
  0
LINE
  5
27C
330
70
100
AcDbEntity
  8
A-ROOF
370
    30
100
AcDbLine
 10
-4665.327472260552
 20
7439.999999999997
 30
0.0
 11
-3292.598785387291
 21
6877.01607677931
 31
0.0
1001
REVIT
1002
{
1070
     1
1000
1649727
1002
}
1002
{
1070
     5
1000
1649746
1002
}
1002
{
1070
     2
1000
-2000035
1002
}
  0
LINE
  5
280
330
70
100
AcDbEntity
  8
A-ROOF
370
    30
100
AcDbLine
 10
-3292.598785387291
 20
7127.016076779309
 30
0.0
 11
-4665.327396245992
 21
7689.999968824882
 31
0.0
1001
REVIT
1002
{
1070
     1
1000
1649727
1002
}
1002
{
1070
     5
1000
1649746
1002
}
1002
{
1070
     2
1000
-2000035
1002
}
  0
LINE
  5
292
330
70
100
AcDbEntity
  8
A-ROOF
100
AcDbLine
 10
-12894.16684293207
 20
11322.08217313153
 30
0.0
 11
-12886.03634458445
 21
11307.66087603794
 31
0.0
1001
REVIT
1002
{
1070
     1
1000
1649727
1002
}
1002
{
1070
     5
1000
1649746
1002
}
1002
{
1070
     2
1000
-2000035
1002
}
1002
{
1070
     3
1000
-2000598
1002
}
  0
LINE
  5
324
330
70
100
AcDbEntity
  8
A-FLOR
100
AcDbLine
 10
-25448.82996060087
 20
271.8591533118015
 30
0.0
 11
-25448.82996060087
 21
164.1530242981593
 31
0.0
  0
LWPOLYLINE
  5
327
102
{ACAD_REACTORS
330
340
102
}
330
70
100
AcDbEntity
  8
A-WALL
370
    30
100
AcDbPolyline
 90
        8
 70
   128
 43
0.0
 10
-2512.856196298301
 20
6570.389737609031
 10
-2508.18828462396
 20
6570.915645287484
 10
-2503.754441532474
 20
6572.466997115856
 10
-2499.776998430564
 20
6574.96600183558
 10
-2496.455400923716
 20
6578.28734891508
 10
-2493.956207780709
 20
6582.264492143051
 10
-2492.404738981451
 20
6586.698000950939
 10
-2491.878791649909
 20
6591.365560694399
1001
REVIT
1002
{
1070
     1
1000
1655004
1002
}
1002
{
1070
     5
1000
1655002
1002
}
  0
LINE
  5
328
102
{ACAD_REACTORS
330
340
102
}
330
70
100
AcDbEntity
  8
A-WALL
370
    30
100
AcDbLine
 10
-2491.878791649909
 20
6591.365560694399
 30
0.0
 11
-2478.580859541893
 21
6675.319069644984
 31
0.0
1001
REVIT
1002
{
1070
     1
1000
1655004
1002
}
1002
{
1070
     5
1000
1655002
1002
}
  0
LWPOLYLINE
  5
329
102
{ACAD_REACTORS
330
340
102
}
330
70
100
AcDbEntity
  8
A-WALL
370
    30
100
AcDbPolyline
 90
        5
 70
   128
 43
0.0
 10
-2478.580859541893
 20
6675.319069644984
 10
-2477.123924931187
 20
6680.317208992173
 10
-2474.461868618336
 20
6684.791386016344
 10
-2470.764276153359
 20
6688.456574526329
 10
-2466.266701626117
 20
6691.079284717111
1001
REVIT
1002
{
1070
     1
1000
1655004
1002
}
1002
{
1070
     5
1000
1655002
1002
}
  0
LWPOLYLINE
  5
32A
102
{ACAD_REACTORS
330
340
102
}
330
70
100
AcDbEntity
  8
A-WALL
370
    30
100
AcDbPolyline
 90
        3
 70
   128
 43
0.0
 10
-2466.266701626115
 20
6691.079284717111
 10
-2457.437218689305
 20
6695.872941364007
 10
-2449.684699997439
 20
6702.263142786531
1001
REVIT
1002
{
1070
     1
1000
1655004
1002
}
1002
{
1070
     5
1000
1655002
1002
}
  0
LINE
  5
32B
102
{ACAD_REACTORS
330
340
102
}
330
70
100
AcDbEntity
  8
A-WALL
370
    30
100
AcDbLine
 10
-2449.684699997439
 20
6702.263142786531
 30
0.0
 11
-2408.472775159213
 21
6776.605817893368
 31
0.0
1001
REVIT
1002
{
1070
     1
1000
1655004
1002
}
1002
{
1070
     5
1000
1655002
1002
}
  0
LWPOLYLINE
  5
32C
102
{ACAD_REACTORS
330
340
102
}
330
70
100
AcDbEntity
  8
A-WALL
370
    30
100
AcDbPolyline
 90
        3
 70
   128
 43
0.0
 10
-2408.472775159211
 20
6776.605817893363
 10
-2399.667870381849
 20
6795.924961428749
 10
-2393.993776347535
 20
6816.383540971012
1001
REVIT
1002
{
1070
     1
1000
1655004
1002
}
1002
{
1070
     5
1000
1655002
1002
}
  0
LINE
  5
32D
102
{ACAD_REACTORS
330
340
102
}
330
70
100
AcDbEntity
  8
A-WALL
370
    30
100
AcDbLine
 10
-2393.993776347535
 20
6816.383540971012
 30
0.0
 11
-2389.232951171184
 21
6893.983113643525
 31
0.0
1001
REVIT
1002
{
1070
     1
1000
1655004
1002
}
1002
{
1070
     5
1000
1655002
1002
}
  0
LINE
  5
32E
102
{ACAD_REACTORS
330
340
102
}
330
70
100
AcDbEntity
  8
A-WALL
370
    30
100
AcDbLine
 10
-2389.232951171184
 20
6893.983113643525
 30
0.0
 11
-2666.608289333336
 21
7023.315606428392
 31
0.0
1001
REVIT
1002
{
1070
     1
1000
1655004
1002
}
1002
{
1070
     5
1000
1655002
1002
}
  0
LINE
  5
32F
102
{ACAD_REACTORS
330
340
102
}
330
70
100
AcDbEntity
  8
A-WALL
370
    30
100
AcDbLine
 10
-2512.856196298301
 20
6570.389737609031
 30
0.0
 11
-2566.600749400211
 21
6570.389737609031
 31
0.0
  0
LINE
  5
330
102
{ACAD_REACTORS
330
340
102
}
330
70
100
AcDbEntity
  8
A-WALL
370
    30
100
AcDbLine
 10
-2735.453878883217
 20
6093.206316846931
 30
0.0
 11
-2703.183571029751
 21
6093.206316846931
 31
0.0
1001
REVIT
1002
{
1070
     1
1000
1657620
1002
}
1002
{
1070
     5
1000
1657618
1002
}
  0
LINE
  5
331
102
{ACAD_REACTORS
330
340
102
}
330
70
100
AcDbEntity
  8
A-WALL
370
    30
100
AcDbLine
 10
-2703.183571029751
 20
6093.206316846931
 30
0.0
 11
-2703.183571029751
 21
6119.174261241354
 31
0.0
1001
REVIT
1002
{
1070
     1
1000
1657620
1002
}
1002
{
1070
     5
1000
1657618
1002
}
  0
LWPOLYLINE
  5
332
102
{ACAD_REACTORS
330
340
102
}
330
70
100
AcDbEntity
  8
A-WALL
370
    30
100
AcDbPolyline
 90
        3
 70
   128
 43
0.0
 10
-2703.183571029755
 20
6119.174261241354
 10
-2701.154927679826
 20
6136.26581376958
 10
-2695.181710591084
 20
6152.407746694013
1001
REVIT
1002
{
1070
     1
1000
1657620
1002
}
1002
{
1070
     5
1000
1657618
1002
}
  0
LWPOLYLINE
  5
333
102
{ACAD_REACTORS
330
340
102
}
330
70
100
AcDbEntity
  8
A-WALL
370
    30
100
AcDbPolyline
 90
        5
 70
   128
 43
0.0
 10
-2695.181710591084
 20
6152.407746694013
 10
-2690.037600111089
 20
6166.677135727962
 10
-2688.630822963492
 20
6181.779937538417
 10
-2691.051018117538
 20
6196.753810940611
 10
-2697.14397223578
 20
6210.644629988163
1001
REVIT
1002
{
1070
     1
1000
1657620
1002
}
1002
{
1070
     5
1000
1657618
1002
}
  0
LWPOLYLINE
  5
334
102
{ACAD_REACTORS
330
340
102
}
330
70
100
AcDbEntity
  8
A-WALL
370
    30
100
AcDbPolyline
 90
        3
 70
   128
 43
0.0
 10
-2697.143972235783
 20
6210.644629988163
 10
-2702.4830810001
 20
6225.720671301899
 10
-2704.29372165669
 20
6241.611262248611
1001
REVIT
1002
{
1070
     1
1000
1657620
1002
}
1002
{
1070
     5
1000
1657618
1002
}
  0
LINE
  5
335
102
{ACAD_REACTORS
330
340
102
}
330
70
100
AcDbEntity
  8
A-WALL
370
    30
100
AcDbLine
 10
-2704.29372165669
 20
6241.611262248611
 30
0.0
 11
-2704.293721656684
 21
6296.611262248634
 31
0.0
1001
REVIT
1002
{
1070
     1
1000
1657620
1002
}
1002
{
1070
     5
1000
1657618
1002
}
  0
LWPOLYLINE
  5
336
102
{ACAD_REACTORS
330
340
102
}
330
70
100
AcDbEntity
  8
A-WALL
370
    30
100
AcDbPolyline
 90
        3
 70
   128
 43
0.0
 10
-2704.293721656684
 20
6296.611262248634
 10
-2702.115778913837
 20
6307.814961581455
 10
-2697.291905834186
 20
6318.159010850031
1001
REVIT
1002
{
1070
     1
1000
1657620
1002
}
1002
{
1070
     5
1000
1657618
1002
}
  0
LWPOLYLINE
  5
337
102
{ACAD_REACTORS
330
340
102
}
330
70
100
AcDbEntity
  8
A-WALL
370
    30
100
AcDbPolyline
 90
        4
 70
   128
 43
0.0
 10
-2697.291905834186
 20
6318.159010850031
 10
-2692.459650189752
 20
6327.780097499189
 10
-2689.491841362942
 20
6338.129296545679
 10
-2688.491042988212
 20
6348.848953056228
1001
REVIT
1002
{
1070
     1
1000
1657620
1002
}
1002
{
1070
     5
1000
1657618
1002
}
  0
LINE
  5
338
102
{ACAD_REACTORS
330
340
102
}
330
70
100
AcDbEntity
  8
A-WALL
370
    30
100
AcDbLine
 10
-2688.491042988212
 20
6348.848953056228
 30
0.0
 11
-2688.491042988212
 21
6378.84895305623
 31
0.0
1001
REVIT
1002
{
1070
     1
1000
1657620
1002
}
1002
{
1070
     5
1000
1657618
1002
}
  0
LWPOLYLINE
  5
339
102
{ACAD_REACTORS
330
340
102
}
330
70
100
AcDbEntity
  8
A-WALL
370
    30
100
AcDbPolyline
 90
        3
 70
   128
 43
0.0
 10
-2688.491042988215
 20
6378.84895305623
 10
-2684.877924008891
 20
6396.075656969326
 10
-2677.674632696474
 20
6412.135931126552
1001
REVIT
1002
{
1070
     1
1000
1657620
1002
}
1002
{
1070
     5
1000
1657618
1002
}
  0
LWPOLYLINE
  5
33A
102
{ACAD_REACTORS
330
340
102
}
330
70
100
AcDbEntity
  8
A-WALL
370
    30
100
AcDbPolyline
 90
        3
 70
   128
 43
0.0
 10
-2677.674632696473
 20
6412.135931126552
 10
-2671.529010450008
 20
6433.899472578187
 10
-2669.859875518417
 20
6456.452280012108
1001
REVIT
1002
{
1070
     1
1000
1657620
1002
}
1002
{
1070
     5
1000
1657618
1002
}
  0
LWPOLYLINE
  5
33B
102
{ACAD_REACTORS
330
340
102
}
330
70
100
AcDbEntity
  8
A-WALL
370
    30
100
AcDbPolyline
 90
        5
 70
   128
 43
0.0
 10
-2669.859875518417
 20
6456.452280012108
 10
-2668.265808838388
 20
6472.012975630339
 10
-2662.757700817846
 20
6486.653372967698
 10
-2653.699441109857
 20
6499.406263485766
 10
-2641.689457880747
 20
6509.429135583639
1001
REVIT
1002
{
1070
     1
1000
1657620
1002
}
1002
{
1070
     5
1000
1657618
1002
}
  0
LWPOLYLINE
  5
33C
102
{ACAD_REACTORS
330
340
102
}
330
70
100
AcDbEntity
  8
A-WALL
370
    30
100
AcDbPolyline
 90
        4
 70
   128
 43
0.0
 10
-2641.689457880747
 20
6509.429135583639
 10
-2629.165210698316
 20
6517.040748824115
 10
-2618.801761448454
 20
6527.403416735743
 10
-2611.189574297431
 20
6539.926719669509
1001
REVIT
1002
{
1070
     1
1000
1657620
1002
}
1002
{
1070
     5
1000
1657618
1002
}
  0
LWPOLYLINE
  5
33D
102
{ACAD_REACTORS
330
340
102
}
330
70
100
AcDbEntity
  8
A-WALL
370
    30
100
AcDbPolyline
 90
        6
 70
   128
 43
0.0
 10
-2611.189574297438
 20
6539.926719669513
 10
-2605.456717741708
 20
6549.217439986759
 10
-2597.583192376293
 20
6556.780185414273
 10
-2588.068957498999
 20
6562.134730802845
 10
-2577.518155468875
 20
6564.941069023747
 10
-2566.600749400214
 20
6565.021001008426
1001
REVIT
1002
{
1070
     1
1000
1657620
1002
}
1002
{
1070
     5
1000
1657618
1002
}
  0
LINE
  5
33E
102
{ACAD_REACTORS
330
340
102
}
330
70
100
AcDbEntity
  8
A-WALL
370
    30
100
AcDbLine
 10
-2566.600749400214
 20
6565.021001008426
 30
0.0
 11
-2566.600749400201
 21
6570.389737609031
 31
0.0
1001
REVIT
1002
{
1070
     1
1000
1657620
1002
}
1002
{
1070
     5
1000
1657618
1002
}
  0
LINE
  5
341
330
70
100
AcDbEntity
  8
A-FLOR
370
    30
100
AcDbLine
 10
-4400.395289563804
 20
39.99999999999957
 30
0.0
 11
-15829.49898487939
 21
39.99999999999957
 31
0.0
1001
REVIT
1002
{
1070
     1
1000
933422
1002
}
1002
{
1070
     5
1000
1666129
1002
}
1002
{
1070
     2
1000
-2000032
1002
}
  0
LINE
  5
35E
330
70
100
AcDbEntity
  8
A-WALL
370
    30
100
AcDbLine
 10
-23637.82642129814
 20
6721.376366978872
 30
0.0
 11
-23637.82642129814
 21
6546.525044142203
 31
0.0
1001
REVIT
1002
{
1070
     1
1000
1363660
1002
}
1002
{
1070
     5
1000
1363658
1002
}
  0
LWPOLYLINE
  5
35F
330
70
100
AcDbEntity
  8
A-WALL
370
    30
100
AcDbPolyline
 90
        4
 70
   128
 43
0.0
 10
-23637.82642129814
 20
6546.525044142199
 10
-23617.00283889885
 20
6535.34360761376
 10
-23594.39979349978
 20
6528.433323352787
 10
-23570.8835363749
 20
6526.059024811544
1001
REVIT
1002
{
1070
     1
1000
1363660
1002
}
1002
{
1070
     5
1000
1363658
1002
}
  0
LINE
  5
360
330
70
100
AcDbEntity
  8
A-WALL
370
    30
100
AcDbLine
 10
-23570.8835363749
 20
6526.059024811544
 30
0.0
 11
-23570.8835363749
 21
6496.059024811811
 31
0.0
1001
REVIT
1002
{
1070
     1
1000
1363660
1002
}
1002
{
1070
     5
1000
1363658
1002
}
  0
LWPOLYLINE
  5
361
330
70
100
AcDbEntity
  8
A-WALL
370
    30
100
AcDbPolyline
 90
        5
 70
   128
 43
0.0
 10
-23570.8835363749
 20
6496.059024811811
 10
-23565.02600539497
 20
6484.484704684927
 10
-23556.87148316069
 20
6474.396056853037
 10
-23546.78260142792
 20
6466.24172367338
 10
-23535.20801295547
 20
6460.384328494541
1001
REVIT
1002
{
1070
     1
1000
1363660
1002
}
1002
{
1070
     5
1000
1363658
1002
}
  0
LINE
  5
362
330
70
100
AcDbEntity
  8
A-WALL
370
    30
100
AcDbLine
 10
-23535.20801295547
 20
6460.384328494541
 30
0.0
 11
-23535.20801295547
 21
6455.384328494503
 31
0.0
1001
REVIT
1002
{
1070
     1
1000
1363660
1002
}
1002
{
1070
     5
1000
1363658
1002
}
  0
LINE
  5
363
330
70
100
AcDbEntity
  8
A-WALL
370
    30
100
AcDbLine
 10
-23535.20801295547
 20
6455.384328494503
 30
0.0
 11
-23530.20789703265
 21
6455.384328494265
 31
0.0
1001
REVIT
1002
{
1070
     1
1000
1363660
1002
}
1002
{
1070
     5
1000
1363658
1002
}
  0
LINE
  5
364
330
70
100
AcDbEntity
  8
A-WALL
370
    30
100
AcDbLine
 10
-23530.20789703265
 20
6455.384328494265
 30
0.0
 11
-23530.20789703268
 21
6397.581758841349
 31
0.0
1001
REVIT
1002
{
1070
     1
1000
1363660
1002
}
1002
{
1070
     5
1000
1363658
1002
}
  0
LWPOLYLINE
  5
365
330
70
100
AcDbEntity
  8
A-WALL
370
    30
100
AcDbPolyline
 90
        7
 70
   128
 43
0.0
 10
-23530.20789703258
 20
6397.581758841349
 10
-23529.96291498407
 20
6395.485852057454
 10
-23529.24117588416
 20
6393.502936150782
 10
-23528.08158887456
 20
6391.739910631121
 10
-23526.54666759111
 20
6390.291820660582
 10
-23524.71916003749
 20
6389.236733144297
 10
-23522.69758761893
 20
6388.631528123372
1001
REVIT
1002
{
1070
     1
1000
1363660
1002
}
1002
{
1070
     5
1000
1363658
1002
}
  0
LINE
  5
366
330
70
100
AcDbEntity
  8
A-WALL
370
    30
100
AcDbLine
 10
-23522.69758761893
 20
6388.631528123372
 30
0.0
 11
-23514.89761934351
 21
6387.256215153762
 31
0.0
1001
REVIT
1002
{
1070
     1
1000
1363660
1002
}
1002
{
1070
     5
1000
1363658
1002
}
  0
LWPOLYLINE
  5
367
330
70
100
AcDbEntity
  8
A-WALL
370
    30
100
AcDbPolyline
 90
        8
 70
   128
 43
0.0
 10
-23514.89761934351
 20
6387.256215153762
 10
-23512.53737370313
 20
6386.990285504063
 10
-23510.2954806347
 20
6386.205831377976
 10
-23508.28435801797
 20
6384.942188580982
 10
-23506.60485193869
 20
6383.262721439429
 10
-23505.34117984466
 20
6381.251645448648
 10
-23504.55670753132
 20
6379.009804356332
 10
-23504.29077171613
 20
6376.64961343597
1001
REVIT
1002
{
1070
     1
1000
1363660
1002
}
1002
{
1070
     5
1000
1363658
1002
}
  0
LINE
  5
368
330
70
100
AcDbEntity
  8
A-WALL
370
    30
100
AcDbLine
 10
-23504.29077171613
 20
6376.64961343597
 30
0.0
 11
-23504.29077171623
 21
6341.649613435962
 31
0.0
1001
REVIT
1002
{
1070
     1
1000
1363660
1002
}
1002
{
1070
     5
1000
1363658
1002
}
  0
LWPOLYLINE
  5
369
330
70
100
AcDbEntity
  8
A-WALL
370
    30
100
AcDbPolyline
 90
        5
 70
   128
 43
0.0
 10
-23504.29077171613
 20
6341.649613435962
 10
-23503.94340051194
 20
6338.477863148206
 10
-23502.91775506846
 20
6335.456479152934
 10
-23501.26245917028
 20
6332.728699179576
 10
-23499.05598706176
 20
6330.423841782277
1001
REVIT
1002
{
1070
     1
1000
1363660
1002
}
1002
{
1070
     5
1000
1363658
1002
}
  0
LINE
  5
36A
330
70
100
AcDbEntity
  8
A-WALL
370
    30
100
AcDbLine
 10
-23499.05598706176
 20
6330.423841782277
 30
0.0
 11
-23490.66472194607
 21
6325.579254928542
 31
0.0
1001
REVIT
1002
{
1070
     1
1000
1363660
1002
}
1002
{
1070
     5
1000
1363658
1002
}
  0
LINE
  5
36E
330
70
100
AcDbEntity
  8
A-WALL
100
AcDbLine
 10
-23641.03091465426
 20
6546.525044142203
 30
0.0
 11
-23641.03091465426
 21
6718.223912769717
 31
0.0
1001
REVIT
1002
{
1070
     1
1000
1363660
1002
}
1002
{
1070
     5
1000
1363658
1002
}
  0
LINE
  5
36F
330
70
100
AcDbEntity
  8
A-WALL
100
AcDbLine
 10
-23490.66472194608
 20
6325.579254928542
 30
0.0
 11
-23477.41660026394
 21
6325.579254928542
 31
0.0
1001
REVIT
1002
{
1070
     1
1000
1363660
1002
}
1002
{
1070
     5
1000
1363658
1002
}
  0
LINE
  5
370
330
70
100
AcDbEntity
  8
A-WALL
100
AcDbLine
 10
-23492.87398357464
 20
6325.579254928545
 30
0.0
 11
-23501.32199751366
 21
6330.423841782277
 31
0.0
1001
REVIT
1002
{
1070
     1
1000
1363660
1002
}
1002
{
1070
     5
1000
1363658
1002
}
  0
SPLINE
  5
371
330
70
100
AcDbEntity
  8
A-WALL
100
AcDbSpline
210
0.0
220
0.0
230
1.0
 70
     8
 71
     3
 72
    11
 73
     7
 74
     0
 42
0.000000001
 43
0.0000000001
 40
0.0
 40
0.0
 40
0.0
 40
0.0
 40
0.25
 40
0.5
 40
0.75
 40
1.0
 40
1.0
 40
1.0
 40
1.0
 10
-23501.32199751366
 20
6330.423841782277
 30
0.0
 10
-23502.15487146116
 20
6331.108850123651
 30
0.0
 10
-23503.63161083978
 20
6332.657647162308
 30
0.0
 10
-23505.31740477211
 20
6335.407154823909
 30
0.0
 10
-23506.35806241914
 20
6338.452608459669
 30
0.0
 10
-23506.58943963642
 20
6340.583929637656
 30
0.0
 10
-23506.59218420401
 20
6341.649613435962
 30
0.0
1001
REVIT
1002
{
1070
     1
1000
1363660
1002
}
1002
{
1070
     5
1000
1363658
1002
}
  0
LINE
  5
372
330
70
100
AcDbEntity
  8
A-WALL
100
AcDbLine
 10
-23506.59218420412
 20
6341.649613435962
 30
0.0
 11
-23506.59218420412
 21
6376.64961343597
 31
0.0
1001
REVIT
1002
{
1070
     1
1000
1363660
1002
}
1002
{
1070
     5
1000
1363658
1002
}
  0
SPLINE
  5
373
330
70
100
AcDbEntity
  8
A-WALL
100
AcDbSpline
210
0.0
220
0.0
230
1.0
 70
     8
 71
     3
 72
    19
 73
    15
 74
     0
 42
0.000000001
 43
0.0000000001
 40
0.0
 40
0.0
 40
0.0
 40
0.0
 40
0.1666666666666666
 40
0.25
 40
0.3333333333333333
 40
0.4166666666666666
 40
0.4583333333333333
 40
0.5
 40
0.5833333333333333
 40
0.6666666666666666
 40
0.7083333333333333
 40
0.75
 40
0.8333333333333332
 40
1.0
 40
1.0
 40
1.0
 40
1.0
 10
-23506.59218420401
 20
6376.64961343597
 30
0.0
 10
-23506.59628903806
 20
6377.575214048095
 30
0.0
 10
-23506.77434855287
 20
6378.963490907395
 30
0.0
 10
-23507.37880005695
 20
6380.720189031428
 30
0.0
 10
-23507.99603094336
 20
6381.968083558444
 30
0.0
 10
-23508.6444485981
 20
6382.932149346584
 30
0.0
 10
-23509.24018116404
 20
6383.648024828438
 30
0.0
 10
-23509.87160303383
 20
6384.323956811345
 30
0.0
 10
-23510.75268536495
 20
6385.088466095806
 30
0.0
 10
-23511.72415814529
 20
6385.732626591045
 30
0.0
 10
-23512.54040101449
 20
6386.169178831288
 30
0.0
 10
-23513.39631126789
 20
6386.551383597144
 30
0.0
 10
-23514.94369833742
 20
6387.073310542104
 30
0.0
 10
-23516.31823993341
 20
6387.256215153771
 30
0.0
 10
-23517.27076429529
 20
6387.256215153763
 30
0.0
1001
REVIT
1002
{
1070
     1
1000
1363660
1002
}
1002
{
1070
     5
1000
1363658
1002
}
  0
LINE
  5
374
330
70
100
AcDbEntity
  8
A-WALL
100
AcDbLine
 10
-23517.2707642953
 20
6387.256215153763
 30
0.0
 11
-23514.89761934351
 21
6387.256215153763
 31
0.0
1001
REVIT
1002
{
1070
     1
1000
1363660
1002
}
1002
{
1070
     5
1000
1363658
1002
}
  0
LINE
  5
375
330
70
100
AcDbEntity
  8
A-WALL
100
AcDbLine
 10
-23517.2707642953
 20
6387.256215153763
 30
0.0
 11
-23525.12348254533
 21
6388.631528123358
 31
0.0
1001
REVIT
1002
{
1070
     1
1000
1363660
1002
}
1002
{
1070
     5
1000
1363658
1002
}
  0
SPLINE
  5
376
330
70
100
AcDbEntity
  8
A-WALL
100
AcDbSpline
210
0.0
220
0.0
230
1.0
 70
     8
 71
     3
 72
    15
 73
    11
 74
     0
 42
0.000000001
 43
0.0000000001
 40
0.0
 40
0.0
 40
0.0
 40
0.0
 40
0.1666666666666666
 40
0.3333333333333333
 40
0.4166666666666666
 40
0.5
 40
0.5833333333333333
 40
0.6666666666666666
 40
0.8333333333333332
 40
1.0
 40
1.0
 40
1.0
 40
1.0
 10
-23525.12348254533
 20
6388.631528123376
 30
0.0
 10
-23525.83437896634
 20
6388.753946848149
 30
0.0
 10
-23527.18576213971
 20
6389.16105278221
 30
0.0
 10
-23528.73981312947
 20
6390.048337010254
 30
0.0
 10
-23529.82696368247
 20
6390.956244806865
 30
0.0
 10
-23530.56019067337
 20
6391.726709953098
 30
0.0
 10
-23531.19564341788
 20
6392.576379167485
 30
0.0
 10
-23531.90801169957
 20
6393.799478495061
 30
0.0
 10
-23532.51953884686
 20
6395.466839968729
 30
0.0
 10
-23532.68238194341
 20
6396.876777502539
 30
0.0
 10
-23532.68458301563
 20
6397.581758841347
 30
0.0
1001
REVIT
1002
{
1070
     1
1000
1363660
1002
}
1002
{
1070
     5
1000
1363658
1002
}
  0
LINE
  5
377
330
70
100
AcDbEntity
  8
A-WALL
100
AcDbLine
 10
-23532.68458301574
 20
6397.581758841347
 30
0.0
 11
-23532.6845830157
 21
6455.3843284945
 31
0.0
1001
REVIT
1002
{
1070
     1
1000
1363660
1002
}
1002
{
1070
     5
1000
1363658
1002
}
  0
LINE
  5
378
330
70
100
AcDbEntity
  8
A-WALL
100
AcDbLine
 10
-23537.7185139463
 20
6455.384328494503
 30
0.0
 11
-23537.71851394629
 21
6460.384328494538
 31
0.0
1001
REVIT
1002
{
1070
     1
1000
1363660
1002
}
1002
{
1070
     5
1000
1363658
1002
}
  0
SPLINE
  5
379
330
70
100
AcDbEntity
  8
A-WALL
100
AcDbSpline
210
0.0
220
0.0
230
1.0
 70
     8
 71
     3
 72
    11
 73
     7
 74
     0
 42
0.000000001
 43
0.0000000001
 40
0.0
 40
0.0
 40
0.0
 40
0.0
 40
0.25
 40
0.5
 40
0.75
 40
1.0
 40
1.0
 40
1.0
 40
1.0
 10
-23537.7185139463
 20
6460.384328494541
 30
0.0
 10
-23541.85171543703
 20
6461.921970956836
 30
0.0
 10
-23549.59778496148
 20
6465.856035794465
 30
0.0
 10
-23559.85845686187
 20
6474.071260324388
 30
0.0
 10
-23568.13933261611
 20
6484.235264026195
 30
0.0
 10
-23572.05522934691
 20
6492.009029129005
 30
0.0
 10
-23573.6353053924
 20
6496.059024811811
 30
0.0
1001
REVIT
1002
{
1070
     1
1000
1363660
1002
}
1002
{
1070
     5
1000
1363658
1002
}
  0
LINE
  5
37A
330
70
100
AcDbEntity
  8
A-WALL
100
AcDbLine
 10
-23573.6353053924
 20
6496.059024811811
 30
0.0
 11
-23573.6353053924
 21
6526.059024811542
 31
0.0
1001
REVIT
1002
{
1070
     1
1000
1363660
1002
}
1002
{
1070
     5
1000
1363658
1002
}
  0
SPLINE
  5
37B
330
70
100
AcDbEntity
  8
A-WALL
100
AcDbSpline
210
0.0
220
0.0
230
1.0
 70
     8
 71
     3
 72
    10
 73
     6
 74
     0
 42
0.000000001
 43
0.0000000001
 40
0.0
 40
0.0
 40
0.0
 40
0.0
 40
0.3333333333333333
 40
0.6666666666666666
 40
1.0
 40
1.0
 40
1.0
 40
1.0
 10
-23573.6353053924
 20
6526.059024811542
 30
0.0
 10
-23581.67962216082
 20
6526.079424860497
 30
0.0
 10
-23597.40608958524
 20
6527.672460900086
 30
0.0
 10
-23620.42284909196
 20
6534.627189675683
 30
0.0
 10
-23634.34198146126
 20
6542.129347278391
 30
0.0
 10
-23641.03091465426
 20
6546.525044142203
 30
0.0
1001
REVIT
1002
{
1070
     1
1000
1363660
1002
}
1002
{
1070
     5
1000
1363658
1002
}
  0
LINE
  5
37C
330
70
100
AcDbEntity
  8
A-WALL
100
AcDbLine
 10
-23641.03091465426
 20
6546.525044142203
 30
0.0
 11
-23637.82642129814
 21
6546.525044142203
 31
0.0
1001
REVIT
1002
{
1070
     1
1000
1363660
1002
}
1002
{
1070
     5
1000
1363658
1002
}
  0
LINE
  5
37D
330
70
100
AcDbEntity
  8
A-WALL
100
AcDbLine
 10
-23490.66472194607
 20
6325.579254928542
 30
0.0
 11
-23492.87398357465
 21
6325.579254928542
 31
0.0
1001
REVIT
1002
{
1070
     1
1000
1363660
1002
}
1002
{
1070
     5
1000
1363658
1002
}
  0
LINE
  5
37E
330
70
100
AcDbEntity
  8
A-WALL
100
AcDbLine
 10
-23499.05598706176
 20
6330.423841782275
 30
0.0
 11
-23501.32199751366
 21
6330.423841782275
 31
0.0
1001
REVIT
1002
{
1070
     1
1000
1363660
1002
}
1002
{
1070
     5
1000
1363658
1002
}
  0
LINE
  5
37F
330
70
100
AcDbEntity
  8
A-WALL
100
AcDbLine
 10
-23514.89761934351
 20
6387.256215153763
 30
0.0
 11
-23517.2707642953
 21
6387.256215153763
 31
0.0
1001
REVIT
1002
{
1070
     1
1000
1363660
1002
}
1002
{
1070
     5
1000
1363658
1002
}
  0
LINE
  5
380
330
70
100
AcDbEntity
  8
A-WALL
100
AcDbLine
 10
-23535.20801295547
 20
6455.384328494503
 30
0.0
 11
-23537.7185139463
 21
6455.384328494503
 31
0.0
1001
REVIT
1002
{
1070
     1
1000
1363660
1002
}
1002
{
1070
     5
1000
1363658
1002
}
  0
LINE
  5
381
330
70
100
AcDbEntity
  8
A-WALL
100
AcDbLine
 10
-23535.20801295547
 20
6460.384328494538
 30
0.0
 11
-23537.7185139463
 21
6460.384328494538
 31
0.0
1001
REVIT
1002
{
1070
     1
1000
1363660
1002
}
1002
{
1070
     5
1000
1363658
1002
}
  0
LINE
  5
382
330
70
100
AcDbEntity
  8
A-WALL
100
AcDbLine
 10
-23570.8835363749
 20
6496.059024811811
 30
0.0
 11
-23573.6353053924
 21
6496.059024811811
 31
0.0
1001
REVIT
1002
{
1070
     1
1000
1363660
1002
}
1002
{
1070
     5
1000
1363658
1002
}
  0
LINE
  5
383
330
70
100
AcDbEntity
  8
A-WALL
100
AcDbLine
 10
-23570.8835363749
 20
6526.059024811542
 30
0.0
 11
-23573.6353053924
 21
6526.059024811542
 31
0.0
1001
REVIT
1002
{
1070
     1
1000
1363660
1002
}
1002
{
1070
     5
1000
1363658
1002
}
  0
LINE
  5
388
330
70
100
AcDbEntity
  8
A-WALL
370
    30
100
AcDbLine
 10
-23477.41660026394
 20
6325.579254928542
 30
0.0
 11
-23477.41660026394
 21
6093.206316846931
 31
0.0
1001
REVIT
1002
{
1070
     1
1000
1359855
1002
}
1002
{
1070
     5
1000
1359853
1002
}
  0
LINE
  5
389
330
70
100
AcDbEntity
  8
A-WALL
370
    30
100
AcDbLine
 10
-23408.4363376629
 20
6093.206316846931
 30
0.0
 11
-23023.88574726704
 21
6093.206316846931
 31
0.0
1001
REVIT
1002
{
1070
     1
1000
1359855
1002
}
1002
{
1070
     5
1000
1359853
1002
}
  0
LINE
  5
38A
330
70
100
AcDbEntity
  8
A-WALL
370
    30
100
AcDbLine
 10
-23023.88574726704
 20
6093.206316846931
 30
0.0
 11
-23023.88574726704
 21
7018.140818300665
 31
0.0
1001
REVIT
1002
{
1070
     1
1000
1359855
1002
}
1002
{
1070
     5
1000
1359853
1002
}
  0
LINE
  5
3A1
330
70
100
AcDbEntity
  8
A-WALL
370
    30
100
AcDbLine
 10
-3292.598785387289
 20
6091.331316846932
 30
0.0
 11
-2735.453878883217
 21
6091.331316846932
 31
0.0
1001
REVIT
1002
{
1070
     1
1000
1658490
1002
}
1002
{
1070
     5
1000
1658488
1002
}
  0
LINE
  5
3A2
330
70
100
AcDbEntity
  8
A-WALL
370
    30
100
AcDbLine
 10
-2735.453878883217
 20
6091.331316846932
 30
0.0
 11
-2735.453878883217
 21
6093.206316846931
 31
0.0
1001
REVIT
1002
{
1070
     1
1000
1658490
1002
}
1002
{
1070
     5
1000
1658488
1002
}
  0
LINE
  5
3A3
330
70
100
AcDbEntity
  8
A-WALL
370
    30
100
AcDbLine
 10
-2666.608289333332
 20
7023.315606428392
 30
0.0
 11
-3292.598785387291
 21
7289.012773801099
 31
0.0
1001
REVIT
1002
{
1070
     1
1000
1658490
1002
}
1002
{
1070
     5
1000
1658488
1002
}
  0
LINE
  5
3A4
330
70
100
AcDbEntity
  8
A-WALL
370
    30
100
AcDbLine
 10
-3292.598785387291
 20
7289.012773801099
 30
0.0
 11
-3292.598785387289
 21
6091.331316846932
 31
0.0
1001
REVIT
1002
{
1070
     1
1000
1658490
1002
}
1002
{
1070
     5
1000
1658488
1002
}
  0
LINE
  5
3A7
330
70
100
AcDbEntity
  8
A-ROOF
370
    30
100
AcDbLine
 10
-2298.561070210303
 20
6805.207934606977
 30
0.0
 11
-2392.318425852957
 21
6843.69109326294
 31
0.0
1001
REVIT
1002
{
1070
     1
1000
1350298
1002
}
1002
{
1070
     5
1000
1350280
1002
}
1002
{
1070
     2
1000
-2000035
1002
}
  0
LWPOLYLINE
  5
3AA
330
70
100
AcDbEntity
  8
0
100
AcDbPolyline
 90
        4
 70
     1
 43
0.0
 10
-31956.7366068447
 20
18532.84169078461
 10
4890.221107659047
 20
18532.84169078461
 10
4890.221107659047
 20
-3898.570971398251
 10
-31956.7366068447
 20
-3898.570971398251
  0
LINE
  5
3AC
330
70
100
AcDbEntity
  8
0
100
AcDbLine
 10
-23639.62028269327
 20
-1201.261914311821
 30
0.0
 11
-21197.39324364436
 21
-1201.261914311821
 31
0.0
  0
LINE
  5
3AD
330
70
100
AcDbEntity
  8
0
100
AcDbLine
 10
-4853.826691498951
 20
-1201.261914311821
 30
0.0
 11
-2411.599652450037
 21
-1201.261914311821
 31
0.0
  0
ENDSEC
  0
SECTION
  2
OBJECTS
  0
DICTIONARY
  5
C
330
0
100
AcDbDictionary
281
     1
  3
ACAD_CIP_PREVIOUS_PRODUCT_INFO
350
79
  3
ACAD_COLOR
350
63
  3
ACAD_DETAILVIEWSTYLE
350
6A
  3
ACAD_GROUP
350
D
  3
ACAD_IMAGE_VARS
350
7A
  3
ACAD_LAYOUT
350
62
  3
ACAD_MATERIAL
350
10
  3
ACAD_MLEADERSTYLE
350
66
  3
ACAD_MLINESTYLE
350
5F
  3
ACAD_PLOTSETTINGS
350
61
  3
ACAD_PLOTSTYLENAME
350
E
  3
ACAD_SCALELIST
350
42
  3
ACAD_SECTIONVIEWSTYLE
350
68
  3
ACAD_TABLESTYLE
350
64
  3
ACAD_VISUALSTYLE
350
29
  3
ACDB_RECOMPOSE_DATA
350
3EC
  3
AcDbVariableDictionary
350
7B
  3
REVIT_DICTIONARY
350
2D6
  0
DICTIONARY
  5
2DB
330
70
100
AcDbDictionary
280
     1
281
     1
  3
ACAD_SORTENTS
360
2DC
  0
XRECORD
  5
79
102
{ACAD_REACTORS
330
C
102
}
330
C
100
AcDbXrecord
280
     1
300
ACDLT
300
2023
300

  0
DICTIONARY
  5
63
102
{ACAD_REACTORS
330
C
102
}
330
C
100
AcDbDictionary
281
     1
  0
DICTIONARY
  5
6A
102
{ACAD_REACTORS
330
C
102
}
330
C
100
AcDbDictionary
281
     1
  3
Imperial24
350
6B
  3
Metric50
350
319
  0
DICTIONARY
  5
D
102
{ACAD_REACTORS
330
C
102
}
330
C
100
AcDbDictionary
281
     1
  3
*A1
350
340
  0
RASTERVARIABLES
  5
7A
102
{ACAD_REACTORS
330
C
102
}
330
C
100
AcDbRasterVariables
 90
        0
 70
     0
 71
     1
 72
     1
  0
DICTIONARY
  5
62
102
{ACAD_REACTORS
330
C
102
}
330
C
100
AcDbDictionary
281
     1
  3
Layout1
350
6F
  3
Layout2
350
77
  3
Model
350
73
  0
DICTIONARY
  5
10
102
{ACAD_REACTORS
330
C
102
}
330
C
100
AcDbDictionary
281
     1
  3
ByBlock
350
19
  3
ByLayer
350
11
  3
Global
350
21
  0
DICTIONARY
  5
66
102
{ACAD_REACTORS
330
C
102
}
330
C
100
AcDbDictionary
281
     1
  3
Standard
350
67
  0
DICTIONARY
  5
5F
102
{ACAD_REACTORS
330
C
102
}
330
C
100
AcDbDictionary
281
     1
  3
Standard
350
60
  0
DICTIONARY
  5
61
102
{ACAD_REACTORS
330
C
102
}
330
C
100
AcDbDictionary
281
     1
  0
ACDBDICTIONARYWDFLT
  5
E
102
{ACAD_REACTORS
330
C
102
}
330
C
100
AcDbDictionary
281
     1
  3
Normal
350
F
100
AcDbDictionaryWithDefault
340
F
  0
DICTIONARY
  5
42
102
{ACAD_REACTORS
330
C
102
}
330
C
100
AcDbDictionary
281
     1
  3
A0
350
43
  3
A1
350
44
  3
A2
350
45
  3
A3
350
46
  3
A4
350
47
  3
A5
350
48
  3
A6
350
49
  3
A7
350
4A
  3
A8
350
4B
  3
A9
350
4C
  3
B0
350
4D
  3
B1
350
4E
  3
B2
350
4F
  3
B3
350
50
  3
B4
350
51
  3
B5
350
52
  3
B6
350
53
  0
DICTIONARY
  5
68
102
{ACAD_REACTORS
330
C
102
}
330
C
100
AcDbDictionary
281
     1
  3
Imperial24
350
69
  3
Metric50
350
318
  0
DICTIONARY
  5
64
102
{ACAD_REACTORS
330
C
102
}
330
C
100
AcDbDictionary
281
     1
  3
Standard
350
65
  0
DICTIONARY
  5
29
102
{ACAD_REACTORS
330
C
102
}
330
C
100
AcDbDictionary
281
     1
  3
2dWireframe
350
2F
  3
Basic
350
2E
  3
Brighten
350
35
  3
ColorChange
350
39
  3
Conceptual
350
32
  3
Dim
350
34
  3
EdgeColorOff
350
41
  3
Facepattern
350
38
  3
Flat
350
2A
  3
FlatWithEdges
350
2B
  3
Gouraud
350
2C
  3
GouraudWithEdges
350
2D
  3
Hidden
350
31
  3
JitterOff
350
3F
  3
Linepattern
350
37
  3
OverhangOff
350
40
  3
Realistic
350
33
  3
Shaded
350
3E
  3
Shaded with edges
350
3D
  3
Shades of Gray
350
3A
  3
Sketchy
350
3B
  3
Thicken
350
36
  3
Wireframe
350
30
  3
X-Ray
350
3C
  0
XRECORD
  5
3EC
102
{ACAD_REACTORS
330
C
102
}
330
C
100
AcDbXrecord
280
     1
 90
        1
330
65
  0
DICTIONARY
  5
7B
102
{ACAD_REACTORS
330
C
102
}
330
C
100
AcDbDictionary
281
     1
  3
CANNOSCALE
350
80
  3
CMLEADERSTYLE
350
7D
  3
CTABLESTYLE
350
7C
  3
CVIEWDETAILSTYLE
350
7E
  3
CVIEWSECTIONSTYLE
350
7F
  0
DICTIONARY
  5
2D6
102
{ACAD_REACTORS
330
C
102
}
330
C
100
AcDbDictionary
281
     1
  3
DRAWING_TOOL
350
2DA
  3
REVIT_CATEGORY_MAPPING
350
2D8
  3
REVIT_SUB_CATEGORY_MAPPING
350
2D9
  3
REVIT_TYPE_MAPPING
350
2D7
  0
SORTENTSTABLE
  5
2DC
102
{ACAD_REACTORS
330
2DB
102
}
330
2DB
100
AcDbSortentsTable
330
70
331
161
  5
163
331
163
  5
164
331
164
  5
166
331
16A
  5
16B
331
16B
  5
16E
331
16F
  5
170
331
170
  5
171
331
171
  5
172
331
172
  5
173
331
173
  5
174
331
174
  5
175
331
175
  5
19F
331
1A0
  5
1B7
331
1A1
  5
1B8
331
1A2
  5
1B9
331
1A3
  5
1BA
331
1A4
  5
1BB
331
1A5
  5
1BC
331
1A6
  5
1BD
331
1A7
  5
1BE
331
1A8
  5
1BF
331
1A9
  5
1C0
331
1AA
  5
1C1
331
1AB
  5
1C2
331
1AC
  5
1C3
331
1AD
  5
1C4
331
1AE
  5
1C5
331
1AF
  5
1C6
331
1B0
  5
1C7
331
1B1
  5
1C8
331
1B2
  5
1D5
331
1B3
  5
1D6
331
1B4
  5
1D7
331
1B5
  5
1D8
331
1B6
  5
1D9
331
1B7
  5
1DA
331
1B8
  5
1DB
331
1B9
  5
1DC
331
1BA
  5
1DD
331
1BB
  5
1DE
331
1BC
  5
1DF
331
1BD
  5
1E0
331
1BE
  5
1E1
331
1BF
  5
1E2
331
1C0
  5
1E3
331
1C1
  5
1E4
331
1C2
  5
1E5
331
1C3
  5
1E6
331
1C4
  5
1E7
331
1C5
  5
1E8
331
1C6
  5
228
331
1C7
  5
26D
331
1C8
  5
26E
331
1D6
  5
271
331
1D7
  5
272
331
1D8
  5
273
331
1D9
  5
274
331
1DA
  5
275
331
1DB
  5
276
331
1DC
  5
277
331
1DD
  5
278
331
1DE
  5
279
331
1DF
  5
27A
331
1E0
  5
27B
331
1E1
  5
27C
331
1E2
  5
27D
331
1E3
  5
27E
331
1E4
  5
27F
331
1E6
  5
28E
331
1E7
  5
292
331
1E8
  5
324
331
26F
  5
373
331
270
  5
374
331
271
  5
375
331
272
  5
376
331
273
  5
377
331
274
  5
378
331
275
  5
379
331
276
  5
37A
331
277
  5
37B
331
278
  5
37C
331
279
  5
37D
331
27A
  5
37E
331
27B
  5
37F
331
27C
  5
380
331
280
  5
384
331
292
  5
386
331
324
  5
3A5
331
327
  5
387
331
328
  5
388
331
329
  5
389
331
32A
  5
38A
331
32B
  5
38B
331
32C
  5
38C
331
32D
  5
38D
331
32E
  5
38E
331
32F
  5
3A6
331
330
  5
38F
331
331
  5
390
331
332
  5
391
331
333
  5
392
331
334
  5
393
331
335
  5
394
331
336
  5
395
331
337
  5
396
331
338
  5
397
331
339
  5
398
331
33A
  5
399
331
33B
  5
39A
331
33C
  5
39B
331
33D
  5
39C
331
33E
  5
39D
331
341
  5
161
331
35E
  5
34C
331
35F
  5
34D
331
360
  5
34E
331
361
  5
34F
331
362
  5
350
331
363
  5
351
331
364
  5
352
331
365
  5
353
331
366
  5
354
331
367
  5
355
331
368
  5
356
331
369
  5
357
331
36A
  5
358
331
36E
  5
35C
331
36F
  5
35D
331
370
  5
35E
331
371
  5
35F
331
372
  5
360
331
373
  5
361
331
374
  5
362
331
375
  5
363
331
376
  5
364
331
377
  5
365
331
378
  5
366
331
379
  5
367
331
37A
  5
368
331
37B
  5
369
331
37C
  5
36A
331
37D
  5
36B
331
37E
  5
36C
331
37F
  5
36D
331
380
  5
36E
331
381
  5
36F
331
382
  5
370
331
383
  5
371
331
388
  5
32D
331
389
  5
32E
331
38A
  5
32F
331
3A1
  5
39F
331
3A2
  5
3A0
331
3A3
  5
3A1
331
3A4
  5
3A2
  0
ACDBDETAILVIEWSTYLE
  5
6B
102
{ACAD_XDICTIONARY
360
421
102
}
102
{ACAD_REACTORS
330
6A
102
}
330
6A
100
AcDbModelDocViewStyle
 70
     0
  3
Imperial24
290
     0
100
AcDbDetailViewStyle
 70
     0
 71
     0
 90
        3
 71
     1
340
55
 62
   256
 40
0.24
340
0
 62
   256
 40
0.24
300

 40
0.36
280
     3
 71
     2
340
5D
 90
       25
 62
   256
 71
     3
340
55
 62
   256
 40
0.24
 90
        1
 40
0.75
 90
        1
300
%<\AcVar ViewType \f "%tc1">% %<\AcVar ViewDetailId>%\PSCALE %<\AcVar ViewScale \f "%sn">%
 71
     4
340
5D
 90
       25
 62
   256
340
5D
 90
       25
 62
   256
280
     0
  0
ACDBDETAILVIEWSTYLE
  5
319
102
{ACAD_XDICTIONARY
360
425
102
}
102
{ACAD_REACTORS
330
6A
102
}
330
6A
100
AcDbModelDocViewStyle
 70
     0
  3
Metric50
290
     0
100
AcDbDetailViewStyle
 70
     0
 71
     0
 90
        3
 71
     1
340
55
 62
   256
 40
5.0
340
0
 62
   256
 40
5.0
300

 40
0.0
280
     1
 71
     2
340
5D
 90
       25
 62
   256
 71
     3
340
55
 62
   256
 40
5.0
 90
        0
 40
15.0
 90
        1
300
%<\AcVar ViewDetailId>% (%<\AcVar ViewScale \f "%sn">%)
 71
     4
340
5D
 90
       25
 62
   256
340
5D
 90
       25
 62
   256
280
     0
  0
GROUP
  5
340
102
{ACAD_REACTORS
330
D
102
}
330
D
100
AcDbGroup
300

 70
     1
 71
     1
340
32F
340
33E
340
33D
340
33C
340
33B
340
33A
340
339
340
338
340
337
340
336
340
335
340
334
340
333
340
332
340
331
340
32E
340
32D
340
32C
340
32B
340
32A
340
329
340
328
340
327
340
330
  0
LAYOUT
  5
6F
102
{ACAD_REACTORS
330
62
102
}
330
62
100
AcDbPlotSettings
  1

  2

  4

  6

 40
0.0
 41
0.0
 42
0.0
 43
0.0
 44
0.0
 45
0.0
 46
0.0
 47
0.0
 48
0.0
 49
0.0
140
0.0
141
0.0
142
1.0
143
1.0
 70
   688
 72
     0
 73
     0
 74
     5
  7

 75
    16
147
1.0
 76
     0
 77
     2
 78
   300
148
0.0
149
0.0
100
AcDbLayout
  1
Layout1
 70
     1
 71
     1
 10
0.0
 20
0.0
 11
12.0
 21
9.0
 12
0.0
 22
0.0
 32
0.0
 14
1.000000000000000E+20
 24
1.000000000000000E+20
 34
1.000000000000000E+20
 15
-1.000000000000000E+20
 25
-1.000000000000000E+20
 35
-1.000000000000000E+20
146
0.0
 13
0.0
 23
0.0
 33
0.0
 16
1.0
 26
0.0
 36
0.0
 17
0.0
 27
1.0
 37
0.0
 76
     0
330
6C
  0
LAYOUT
  5
77
102
{ACAD_REACTORS
330
62
102
}
330
62
100
AcDbPlotSettings
  1

  2

  4

  6

 40
0.0
 41
0.0
 42
0.0
 43
0.0
 44
0.0
 45
0.0
 46
0.0
 47
0.0
 48
0.0
 49
0.0
140
0.0
141
0.0
142
1.0
143
1.0
 70
   688
 72
     0
 73
     0
 74
     5
  7

 75
    16
147
1.0
 76
     0
 77
     2
 78
   300
148
0.0
149
0.0
100
AcDbLayout
  1
Layout2
 70
     1
 71
     2
 10
0.0
 20
0.0
 11
12.0
 21
9.0
 12
0.0
 22
0.0
 32
0.0
 14
0.0
 24
0.0
 34
0.0
 15
0.0
 25
0.0
 35
0.0
146
0.0
 13
0.0
 23
0.0
 33
0.0
 16
1.0
 26
0.0
 36
0.0
 17
0.0
 27
1.0
 37
0.0
 76
     0
330
74
  0
LAYOUT
  5
73
102
{ACAD_REACTORS
330
62
102
}
330
62
100
AcDbPlotSettings
  1

  2

  4

  6

 40
0.0
 41
0.0
 42
0.0
 43
0.0
 44
0.0
 45
0.0
 46
0.0
 47
0.0
 48
0.0
 49
0.0
140
0.0
141
0.0
142
1.0
143
1.0
 70
  1712
 72
     0
 73
     0
 74
     0
  7

 75
     0
147
1.0
 76
     0
 77
     2
 78
   300
148
0.0
149
0.0
100
AcDbLayout
  1
Model
 70
     1
 71
     0
 10
0.0
 20
0.0
 11
12.0
 21
9.0
 12
0.0
 22
0.0
 32
0.0
 14
0.0
 24
0.0
 34
0.0
 15
0.0
 25
0.0
 35
0.0
146
0.0
 13
0.0
 23
0.0
 33
0.0
 16
1.0
 26
0.0
 36
0.0
 17
0.0
 27
1.0
 37
0.0
 76
     0
330
70
331
57
  0
MATERIAL
  5
19
102
{ACAD_XDICTIONARY
360
1A
102
}
102
{ACAD_REACTORS
330
10
102
}
330
10
100
AcDbMaterial
  1
ByBlock
 72
     0
 43
0.0208333333333333
 43
0.0
 43
0.0
 43
0.0
 43
0.0
 43
0.0208333333333333
 43
0.0
 43
0.0
 43
0.0
 43
0.0
 43
1.0
 43
0.0
 43
0.0
 43
0.0
 43
0.0
 43
1.0
 77
     0
 47
0.0208333333333333
 47
0.0
 47
0.0
 47
0.0
 47
0.0
 47
0.0208333333333333
 47
0.0
 47
0.0
 47
0.0
 47
0.0
 47
1.0
 47
0.0
 47
0.0
 47
0.0
 47
0.0
 47
1.0
171
     0
 49
0.0208333333333333
 49
0.0
 49
0.0
 49
0.0
 49
0.0
 49
0.0208333333333333
 49
0.0
 49
0.0
 49
0.0
 49
0.0
 49
1.0
 49
0.0
 49
0.0
 49
0.0
 49
0.0
 49
1.0
175
     0
142
0.0208333333333333
142
0.0
142
0.0
142
0.0
142
0.0
142
0.0208333333333333
142
0.0
142
0.0
142
0.0
142
0.0
142
1.0
142
0.0
142
0.0
142
0.0
142
0.0
142
1.0
179
     0
144
0.0208333333333333
144
0.0
144
0.0
144
0.0
144
0.0
144
0.0208333333333333
144
0.0
144
0.0
144
0.0
144
0.0
144
1.0
144
0.0
144
0.0
144
0.0
144
0.0
144
1.0
147
0.0208333333333333
147
0.0
147
0.0
147
0.0
147
0.0
147
0.0208333333333333
147
0.0
147
0.0
147
0.0
147
0.0
147
1.0
147
0.0
147
0.0
147
0.0
147
0.0
147
1.0
  0
MATERIAL
  5
11
102
{ACAD_XDICTIONARY
360
12
102
}
102
{ACAD_REACTORS
330
10
102
}
330
10
100
AcDbMaterial
  1
ByLayer
 72
     0
 43
0.0208333333333333
 43
0.0
 43
0.0
 43
0.0
 43
0.0
 43
0.0208333333333333
 43
0.0
 43
0.0
 43
0.0
 43
0.0
 43
1.0
 43
0.0
 43
0.0
 43
0.0
 43
0.0
 43
1.0
 77
     0
 47
0.0208333333333333
 47
0.0
 47
0.0
 47
0.0
 47
0.0
 47
0.0208333333333333
 47
0.0
 47
0.0
 47
0.0
 47
0.0
 47
1.0
 47
0.0
 47
0.0
 47
0.0
 47
0.0
 47
1.0
171
     0
 49
0.0208333333333333
 49
0.0
 49
0.0
 49
0.0
 49
0.0
 49
0.0208333333333333
 49
0.0
 49
0.0
 49
0.0
 49
0.0
 49
1.0
 49
0.0
 49
0.0
 49
0.0
 49
0.0
 49
1.0
175
     0
142
0.0208333333333333
142
0.0
142
0.0
142
0.0
142
0.0
142
0.0208333333333333
142
0.0
142
0.0
142
0.0
142
0.0
142
1.0
142
0.0
142
0.0
142
0.0
142
0.0
142
1.0
179
     0
144
0.0208333333333333
144
0.0
144
0.0
144
0.0
144
0.0
144
0.0208333333333333
144
0.0
144
0.0
144
0.0
144
0.0
144
1.0
144
0.0
144
0.0
144
0.0
144
0.0
144
1.0
147
0.0208333333333333
147
0.0
147
0.0
147
0.0
147
0.0
147
0.0208333333333333
147
0.0
147
0.0
147
0.0
147
0.0
147
1.0
147
0.0
147
0.0
147
0.0
147
0.0
147
1.0
  0
MATERIAL
  5
21
102
{ACAD_XDICTIONARY
360
22
102
}
102
{ACAD_REACTORS
330
10
102
}
330
10
100
AcDbMaterial
  1
Global
 72
     0
 43
0.0208333333333333
 43
0.0
 43
0.0
 43
0.0
 43
0.0
 43
0.0208333333333333
 43
0.0
 43
0.0
 43
0.0
 43
0.0
 43
1.0
 43
0.0
 43
0.0
 43
0.0
 43
0.0
 43
1.0
 77
     0
 47
0.0208333333333333
 47
0.0
 47
0.0
 47
0.0
 47
0.0
 47
0.0208333333333333
 47
0.0
 47
0.0
 47
0.0
 47
0.0
 47
1.0
 47
0.0
 47
0.0
 47
0.0
 47
0.0
 47
1.0
171
     0
 49
0.0208333333333333
 49
0.0
 49
0.0
 49
0.0
 49
0.0
 49
0.0208333333333333
 49
0.0
 49
0.0
 49
0.0
 49
0.0
 49
1.0
 49
0.0
 49
0.0
 49
0.0
 49
0.0
 49
1.0
175
     0
142
0.0208333333333333
142
0.0
142
0.0
142
0.0
142
0.0
142
0.0208333333333333
142
0.0
142
0.0
142
0.0
142
0.0
142
1.0
142
0.0
142
0.0
142
0.0
142
0.0
142
1.0
179
     0
144
0.0208333333333333
144
0.0
144
0.0
144
0.0
144
0.0
144
0.0208333333333333
144
0.0
144
0.0
144
0.0
144
0.0
144
1.0
144
0.0
144
0.0
144
0.0
144
0.0
144
1.0
147
0.0208333333333333
147
0.0
147
0.0
147
0.0
147
0.0
147
0.0208333333333333
147
0.0
147
0.0
147
0.0
147
0.0
147
1.0
147
0.0
147
0.0
147
0.0
147
0.0
147
1.0
  0
MLEADERSTYLE
  5
67
102
{ACAD_XDICTIONARY
360
41D
102
}
102
{ACAD_REACTORS
330
66
102
}
330
66
100
AcDbMLeaderStyle
179
     2
170
     2
171
     1
172
     0
 90
        2
 40
0.0
 41
0.0
173
     1
 91
-1056964608
340
5B
 92
       -2
290
     1
 42
0.09
291
     1
 43
0.36
  3
Standard
 44
0.18
300

342
55
174
     1
178
     6
175
     1
176
     0
 93
-1056964608
 45
0.18
292
     0
297
     0
 46
0.18
 94
-1056964608
 47
1.0
 49
1.0
140
1.0
293
     1
141
0.0
294
     1
177
     0
142
1.0
295
     0
296
     0
143
0.125
271
     0
272
     9
273
     9
  0
MLINESTYLE
  5
60
102
{ACAD_REACTORS
330
5F
102
}
330
5F
100
AcDbMlineStyle
  2
STANDARD
 70
     0
  3

 62
   256
 51
90.0
 52
90.0
 71
     2
 49
0.5
 62
   256
  6
BYLAYER
 49
-0.5
 62
   256
  6
BYLAYER
  0
ACDBPLACEHOLDER
  5
F
102
{ACAD_REACTORS
330
E
102
}
330
E
  0
SCALE
  5
43
102
{ACAD_REACTORS
330
42
102
}
330
42
100
AcDbScale
 70
     0
300
1:1
140
1.0
141
1.0
290
     1
  0
SCALE
  5
44
102
{ACAD_REACTORS
330
42
102
}
330
42
100
AcDbScale
 70
     0
300
1/128" = 1'-0"
140
0.0078125
141
12.0
290
     0
  0
SCALE
  5
45
102
{ACAD_REACTORS
330
42
102
}
330
42
100
AcDbScale
 70
     0
300
1/64" = 1'-0"
140
0.015625
141
12.0
290
     0
  0
SCALE
  5
46
102
{ACAD_REACTORS
330
42
102
}
330
42
100
AcDbScale
 70
     0
300
1/32" = 1'-0"
140
0.03125
141
12.0
290
     0
  0
SCALE
  5
47
102
{ACAD_REACTORS
330
42
102
}
330
42
100
AcDbScale
 70
     0
300
1/16" = 1'-0"
140
0.0625
141
12.0
290
     0
  0
SCALE
  5
48
102
{ACAD_REACTORS
330
42
102
}
330
42
100
AcDbScale
 70
     0
300
3/32" = 1'-0"
140
0.09375
141
12.0
290
     0
  0
SCALE
  5
49
102
{ACAD_REACTORS
330
42
102
}
330
42
100
AcDbScale
 70
     0
300
1/8" = 1'-0"
140
0.125
141
12.0
290
     0
  0
SCALE
  5
4A
102
{ACAD_REACTORS
330
42
102
}
330
42
100
AcDbScale
 70
     0
300
3/16" = 1'-0"
140
0.1875
141
12.0
290
     0
  0
SCALE
  5
4B
102
{ACAD_REACTORS
330
42
102
}
330
42
100
AcDbScale
 70
     0
300
1/4" = 1'-0"
140
0.25
141
12.0
290
     0
  0
SCALE
  5
4C
102
{ACAD_REACTORS
330
42
102
}
330
42
100
AcDbScale
 70
     0
300
3/8" = 1'-0"
140
0.375
141
12.0
290
     0
  0
SCALE
  5
4D
102
{ACAD_REACTORS
330
42
102
}
330
42
100
AcDbScale
 70
     0
300
1/2" = 1'-0"
140
0.5
141
12.0
290
     0
  0
SCALE
  5
4E
102
{ACAD_REACTORS
330
42
102
}
330
42
100
AcDbScale
 70
     0
300
3/4" = 1'-0"
140
0.75
141
12.0
290
     0
  0
SCALE
  5
4F
102
{ACAD_REACTORS
330
42
102
}
330
42
100
AcDbScale
 70
     0
300
1" = 1'-0"
140
1.0
141
12.0
290
     0
  0
SCALE
  5
50
102
{ACAD_REACTORS
330
42
102
}
330
42
100
AcDbScale
 70
     0
300
1-1/2" = 1'-0"
140
1.5
141
12.0
290
     0
  0
SCALE
  5
51
102
{ACAD_REACTORS
330
42
102
}
330
42
100
AcDbScale
 70
     0
300
3" = 1'-0"
140
3.0
141
12.0
290
     0
  0
SCALE
  5
52
102
{ACAD_REACTORS
330
42
102
}
330
42
100
AcDbScale
 70
     0
300
6" = 1'-0"
140
6.0
141
12.0
290
     0
  0
SCALE
  5
53
102
{ACAD_REACTORS
330
42
102
}
330
42
100
AcDbScale
 70
     0
300
1'-0" = 1'-0"
140
12.0
141
12.0
290
     0
  0
ACDBSECTIONVIEWSTYLE
  5
69
102
{ACAD_XDICTIONARY
360
41F
102
}
102
{ACAD_REACTORS
330
68
102
}
330
68
100
AcDbModelDocViewStyle
 70
     0
  3
Imperial24
290
     0
100
AcDbSectionViewStyle
 70
     0
 71
     0
 90
       78
 71
     1
340
55
 62
   256
 40
0.24
340
0
340
0
 62
   256
 40
0.24
300
I, O, Q, S, X, Z
 40
0.48
 90
        3
 40
0.18
 90
        1
 71
     2
340
5D
 90
       25
 62
   256
340
5D
 90
       50
 62
   256
 40
0.24
 40
0.0
 40
0.24
 71
     3
340
55
 62
   256
 40
0.24
 90
        1
 40
0.75
 90
        1
300
%<\AcVar ViewType \f "%tc1">% %<\AcVar ViewSectionStartId>%-%<\AcVar ViewSectionEndId>%\PSCALE %<\AcVar ViewScale \f "%sn">%
 71
     4
 62
   256
 62
   257
300
ANSI31
 40
1.0
 90
        0
290
     0
290
     0
 90
        6
 40
0.0
 40
1.570796326794896
 40
0.2617993877991494
 40
1.308996938995747
 40
-0.2617993877991494
 40
1.832595714594045
  0
ACDBSECTIONVIEWSTYLE
  5
318
102
{ACAD_XDICTIONARY
360
423
102
}
102
{ACAD_REACTORS
330
68
102
}
330
68
100
AcDbModelDocViewStyle
 70
     0
  3
Metric50
290
     0
100
AcDbSectionViewStyle
 70
     0
 71
     0
 90
      102
 71
     1
340
55
 62
   256
 40
5.0
340
0
340
0
 62
   256
 40
5.0
300
I, O, Q, S, X, Z
 40
10.0
 90
        0
 40
2.5
 90
        0
 71
     2
340
5D
 90
       25
 62
   256
340
5D
 90
       50
 62
   256
 40
5.0
 40
2.5
 40
5.0
 71
     3
340
55
 62
   256
 40
5.0
 90
        0
 40
15.0
 90
        1
300
%<\AcVar ViewSectionStartId>%-%<\AcVar ViewSectionEndId>% (%<\AcVar ViewScale \f "%sn">%)
 71
     4
 62
   256
 62
   257
300
ANSI31
 40
1.0
 90
        0
290
     0
290
     0
 90
        6
 40
0.0
 40
1.570796326794896
 40
0.2617993877991494
 40
1.308996938995747
 40
-0.2617993877991494
 40
1.832595714594046
  0
TABLESTYLE
  5
65
102
{ACAD_XDICTIONARY
360
2DD
102
}
102
{ACAD_REACTORS
330
64
102
}
330
64
100
AcDbTableStyle
280
     0
  3
Standard
 70
     0
 71
     0
 40
0.06
 41
0.06
280
     0
281
     0
  7
Standard
140
0.18
170
     2
 62
     0
 63
     7
283
     0
 90
      512
 91
        0
  1

274
    -2
284
     1
 64
     0
275
    -2
285
     1
 65
     0
276
    -2
286
     1
 66
     0
277
    -2
287
     1
 67
     0
278
    -2
288
     1
 68
     0
279
    -2
289
     1
 69
     0
  7
Standard
140
0.25
170
     5
 62
     0
 63
     7
283
     0
 90
      512
 91
        0
  1

274
    -2
284
     1
 64
     0
275
    -2
285
     1
 65
     0
276
    -2
286
     1
 66
     0
277
    -2
287
     1
 67
     0
278
    -2
288
     1
 68
     0
279
    -2
289
     1
 69
     0
  7
Standard
140
0.18
170
     5
 62
     0
 63
     7
283
     0
 90
      512
 91
        0
  1

274
    -2
284
     1
 64
     0
275
    -2
285
     1
 65
     0
276
    -2
286
     1
 66
     0
277
    -2
287
     1
 67
     0
278
    -2
288
     1
 68
     0
279
    -2
289
     1
 69
     0
  0
VISUALSTYLE
  5
2F
102
{ACAD_XDICTIONARY
360
3F7
102
}
102
{ACAD_REACTORS
330
29
102
}
330
29
100
AcDbVisualStyle
  2
2dWireframe
 70
     4
177
     2
291
     0
 71
     0
176
     1
 72
     2
176
     1
 73
     0
176
     1
 90
        0
176
     1
 40
0.6
176
     1
 41
30.0
176
     1
 63
     7
421
 16777215
176
     1
 74
     1
176
     1
 91
        4
176
     1
 64
     7
176
     1
 65
   257
176
     1
 75
     1
176
     1
175
     1
176
     1
 42
1.0
176
     1
 92
        0
176
     1
 66
   257
176
     1
 43
1.0
176
     1
 76
     1
176
     1
 77
     6
176
     1
 78
     2
176
     1
 67
     7
176
     1
 79
     5
176
     1
170
     0
176
     1
171
     0
176
     1
290
     0
176
     1
 93
        1
176
     1
 44
0.0
176
     1
173
     0
176
     1
1001
ACAD
1000
AcDbSavedByObjectVersion
1070
     0
  0
VISUALSTYLE
  5
2E
102
{ACAD_XDICTIONARY
360
3F5
102
}
102
{ACAD_REACTORS
330
29
102
}
330
29
100
AcDbVisualStyle
  2
Basic
 70
     7
177
     2
291
     1
 71
     1
176
     1
 72
     0
176
     1
 73
     1
176
     1
 90
        0
176
     1
 40
0.6
176
     1
 41
30.0
176
     1
 63
     7
421
 16777215
176
     1
 74
     0
176
     1
 91
        4
176
     1
 64
     7
176
     1
 65
   257
176
     1
 75
     1
176
     1
175
     1
176
     1
 42
1.0
176
     1
 92
        8
176
     1
 66
     7
176
     1
 43
1.0
176
     1
 76
     1
176
     1
 77
     6
176
     1
 78
     2
176
     1
 67
     7
176
     1
 79
     5
176
     1
170
     0
176
     1
171
     0
176
     1
290
     0
176
     1
 93
        1
176
     1
 44
0.0
176
     1
173
     0
176
     1
1001
ACAD
1000
AcDbSavedByObjectVersion
1070
     0
  0
VISUALSTYLE
  5
35
102
{ACAD_XDICTIONARY
360
403
102
}
102
{ACAD_REACTORS
330
29
102
}
330
29
100
AcDbVisualStyle
  2
Brighten
 70
    12
177
     2
291
     1
 71
     2
176
     1
 72
     2
176
     1
 73
     0
176
     1
 90
        0
176
     1
 40
0.6
176
     1
 41
30.0
176
     1
 63
     7
421
 16777215
176
     1
 74
     1
176
     1
 91
        4
176
     1
 64
     7
176
     1
 65
   257
176
     1
 75
     1
176
     1
175
     1
176
     1
 42
1.0
176
     1
 92
        8
176
     1
 66
     7
176
     1
 43
1.0
176
     1
 76
     1
176
     1
 77
     6
176
     1
 78
     2
176
     1
 67
     7
176
     1
 79
     5
176
     1
170
     0
176
     1
171
     0
176
     1
290
     0
176
     1
 93
        1
176
     1
 44
50.0
176
     1
173
     0
176
     1
1001
ACAD
1000
AcDbSavedByObjectVersion
1070
     0
  0
VISUALSTYLE
  5
39
102
{ACAD_XDICTIONARY
360
40B
102
}
102
{ACAD_REACTORS
330
29
102
}
330
29
100
AcDbVisualStyle
  2
ColorChange
 70
    16
177
     2
291
     1
 71
     2
176
     1
 72
     2
176
     1
 73
     3
176
     1
 90
        0
176
     1
 40
0.6
176
     1
 41
30.0
176
     1
 63
     8
421
  8421504
176
     1
 74
     1
176
     1
 91
        4
176
     1
 64
     7
176
     1
 65
   257
176
     1
 75
     1
176
     1
175
     1
176
     1
 42
1.0
176
     1
 92
        8
176
     1
 66
     8
424
  8421504
176
     1
 43
1.0
176
     1
 76
     1
176
     1
 77
     6
176
     1
 78
     2
176
     1
 67
     7
176
     1
 79
     5
176
     1
170
     0
176
     1
171
     0
176
     1
290
     0
176
     1
 93
        1
176
     1
 44
0.0
176
     1
173
     0
176
     1
1001
ACAD
1000
AcDbSavedByObjectVersion
1070
     0
  0
VISUALSTYLE
  5
32
102
{ACAD_XDICTIONARY
360
3FD
102
}
102
{ACAD_REACTORS
330
29
102
}
330
29
100
AcDbVisualStyle
  2
Conceptual
 70
     9
177
     2
291
     0
 71
     3
176
     1
 72
     2
176
     1
 73
     0
176
     1
 90
        0
176
     1
 40
0.6
176
     1
 41
30.0
176
     1
 63
     7
421
 16777215
176
     1
 74
     2
176
     1
 91
        2
176
     1
 64
     7
176
     1
 65
   257
176
     1
 75
     1
176
     1
175
     1
176
     1
 42
179.0
176
     1
 92
        8
176
     1
 66
     7
176
     1
 43
1.0
176
     1
 76
     1
176
     1
 77
     6
176
     1
 78
     2
176
     1
 67
     7
176
     1
 79
     3
176
     1
170
     0
176
     1
171
     0
176
     1
290
     0
176
     1
 93
        1
176
     1
 44
0.0
176
     1
173
     0
176
     1
1001
ACAD
1000
AcDbSavedByObjectVersion
1070
     0
  0
VISUALSTYLE
  5
34
102
{ACAD_XDICTIONARY
360
401
102
}
102
{ACAD_REACTORS
330
29
102
}
330
29
100
AcDbVisualStyle
  2
Dim
 70
    11
177
     2
291
     1
 71
     2
176
     1
 72
     2
176
     1
 73
     0
176
     1
 90
        0
176
     1
 40
0.6
176
     1
 41
30.0
176
     1
 63
     7
421
 16777215
176
     1
 74
     1
176
     1
 91
        4
176
     1
 64
     7
176
     1
 65
   257
176
     1
 75
     1
176
     1
175
     1
176
     1
 42
1.0
176
     1
 92
        8
176
     1
 66
     7
176
     1
 43
1.0
176
     1
 76
     1
176
     1
 77
     6
176
     1
 78
     2
176
     1
 67
     7
176
     1
 79
     5
176
     1
170
     0
176
     1
171
     0
176
     1
290
     0
176
     1
 93
        1
176
     1
 44
-50.0
176
     1
173
     0
176
     1
1001
ACAD
1000
AcDbSavedByObjectVersion
1070
     0
  0
VISUALSTYLE
  5
41
102
{ACAD_XDICTIONARY
360
41B
102
}
102
{ACAD_REACTORS
330
29
102
}
330
29
100
AcDbVisualStyle
  2
EdgeColorOff
 70
    22
177
     2
291
     1
 71
     2
176
     0
 72
     2
176
     0
 73
     0
176
     0
 90
        0
176
     0
 40
0.6
176
     0
 41
30.0
176
     0
 63
     7
421
 16777215
176
     0
 74
     1
176
     0
 91
        4
176
     0
 64
     7
176
     0
 65
   257
176
     0
 75
     1
176
     0
175
     1
176
     0
 42
1.0
176
     0
 92
        8
176
     2
 66
     7
176
     0
 43
1.0
176
     0
 76
     1
176
     0
 77
     6
176
     0
 78
     2
176
     0
 67
     7
176
     0
 79
     5
176
     0
170
     0
176
     0
171
     0
176
     0
290
     0
176
     0
 93
        1
176
     0
 44
0.0
176
     0
173
     0
176
     0
1001
ACAD
1000
AcDbSavedByObjectVersion
1070
     0
  0
VISUALSTYLE
  5
38
102
{ACAD_XDICTIONARY
360
409
102
}
102
{ACAD_REACTORS
330
29
102
}
330
29
100
AcDbVisualStyle
  2
Facepattern
 70
    15
177
     2
291
     1
 71
     2
176
     1
 72
     2
176
     1
 73
     0
176
     1
 90
        0
176
     1
 40
0.6
176
     1
 41
30.0
176
     1
 63
     7
421
 16777215
176
     1
 74
     1
176
     1
 91
        4
176
     1
 64
     7
176
     1
 65
   257
176
     1
 75
     1
176
     1
175
     1
176
     1
 42
1.0
176
     1
 92
        8
176
     1
 66
     7
176
     1
 43
1.0
176
     1
 76
     1
176
     1
 77
     6
176
     1
 78
     2
176
     1
 67
     7
176
     1
 79
     5
176
     1
170
     0
176
     1
171
     0
176
     1
290
     0
176
     1
 93
        1
176
     1
 44
0.0
176
     1
173
     0
176
     1
1001
ACAD
1000
AcDbSavedByObjectVersion
1070
     0
  0
VISUALSTYLE
  5
2A
102
{ACAD_XDICTIONARY
360
3ED
102
}
102
{ACAD_REACTORS
330
29
102
}
330
29
100
AcDbVisualStyle
  2
Flat
 70
     0
177
     2
291
     1
 71
     2
176
     1
 72
     1
176
     1
 73
     1
176
     1
 90
        2
176
     1
 40
0.6
176
     1
 41
30.0
176
     1
 63
     7
421
 16777215
176
     1
 74
     0
176
     1
 91
        0
176
     1
 64
     7
176
     1
 65
   257
176
     1
 75
     1
176
     1
175
     1
176
     1
 42
1.0
176
     1
 92
        8
176
     1
 66
     7
176
     1
 43
1.0
176
     1
 76
     1
176
     1
 77
     6
176
     1
 78
     2
176
     1
 67
     7
176
     1
 79
     5
176
     1
170
     0
176
     1
171
     0
176
     1
290
     0
176
     1
 93
       13
176
     1
 44
0.0
176
     1
173
     0
176
     1
1001
ACAD
1000
AcDbSavedByObjectVersion
1070
     0
  0
VISUALSTYLE
  5
2B
102
{ACAD_XDICTIONARY
360
3EF
102
}
102
{ACAD_REACTORS
330
29
102
}
330
29
100
AcDbVisualStyle
  2
FlatWithEdges
 70
     1
177
     2
291
     1
 71
     2
176
     1
 72
     1
176
     1
 73
     1
176
     1
 90
        2
176
     1
 40
0.6
176
     1
 41
30.0
176
     1
 63
     7
421
 16777215
176
     1
 74
     1
176
     1
 91
        0
176
     1
 64
     7
176
     1
 65
   257
176
     1
 75
     1
176
     1
175
     1
176
     1
 42
1.0
176
     1
 92
        0
176
     1
 66
   257
176
     1
 43
1.0
176
     1
 76
     1
176
     1
 77
     6
176
     1
 78
     2
176
     1
 67
     7
176
     1
 79
     5
176
     1
170
     0
176
     1
171
     0
176
     1
290
     0
176
     1
 93
       13
176
     1
 44
0.0
176
     1
173
     0
176
     1
1001
ACAD
1000
AcDbSavedByObjectVersion
1070
     0
  0
VISUALSTYLE
  5
2C
102
{ACAD_XDICTIONARY
360
3F1
102
}
102
{ACAD_REACTORS
330
29
102
}
330
29
100
AcDbVisualStyle
  2
Gouraud
 70
     2
177
     2
291
     1
 71
     2
176
     1
 72
     2
176
     1
 73
     1
176
     1
 90
        2
176
     1
 40
0.6
176
     1
 41
30.0
176
     1
 63
     7
421
 16777215
176
     1
 74
     0
176
     1
 91
        0
176
     1
 64
     7
176
     1
 65
   257
176
     1
 75
     1
176
     1
175
     1
176
     1
 42
1.0
176
     1
 92
        0
176
     1
 66
     7
176
     1
 43
1.0
176
     1
 76
     1
176
     1
 77
     6
176
     1
 78
     2
176
     1
 67
     7
176
     1
 79
     5
176
     1
170
     0
176
     1
171
     0
176
     1
290
     0
176
     1
 93
       13
176
     1
 44
0.0
176
     1
173
     0
176
     1
1001
ACAD
1000
AcDbSavedByObjectVersion
1070
     0
  0
VISUALSTYLE
  5
2D
102
{ACAD_XDICTIONARY
360
3F3
102
}
102
{ACAD_REACTORS
330
29
102
}
330
29
100
AcDbVisualStyle
  2
GouraudWithEdges
 70
     3
177
     2
291
     1
 71
     2
176
     1
 72
     2
176
     1
 73
     1
176
     1
 90
        2
176
     1
 40
0.6
176
     1
 41
30.0
176
     1
 63
     7
421
 16777215
176
     1
 74
     1
176
     1
 91
        0
176
     1
 64
     7
176
     1
 65
   257
176
     1
 75
     1
176
     1
175
     1
176
     1
 42
1.0
176
     1
 92
        0
176
     1
 66
   257
176
     1
 43
1.0
176
     1
 76
     1
176
     1
 77
     6
176
     1
 78
     2
176
     1
 67
     7
176
     1
 79
     5
176
     1
170
     0
176
     1
171
     0
176
     1
290
     0
176
     1
 93
       13
176
     1
 44
0.0
176
     1
173
     0
176
     1
1001
ACAD
1000
AcDbSavedByObjectVersion
1070
     0
  0
VISUALSTYLE
  5
31
102
{ACAD_XDICTIONARY
360
3FB
102
}
102
{ACAD_REACTORS
330
29
102
}
330
29
100
AcDbVisualStyle
  2
Hidden
 70
     6
177
     2
291
     0
 71
     1
176
     1
 72
     2
176
     1
 73
     2
176
     1
 90
        0
176
     1
 40
0.6
176
     1
 41
30.0
176
     1
 63
     7
421
 16777215
176
     1
 74
     2
176
     1
 91
        2
176
     1
 64
     7
176
     1
 65
   257
176
     1
 75
     2
176
     1
175
     1
176
     1
 42
40.0
176
     1
 92
        0
176
     1
 66
   257
176
     1
 43
1.0
176
     1
 76
     1
176
     1
 77
     6
176
     1
 78
     2
176
     1
 67
     7
176
     1
 79
     3
176
     1
170
     0
176
     1
171
     0
176
     1
290
     0
176
     1
 93
        1
176
     1
 44
0.0
176
     1
173
     0
176
     1
1001
ACAD
1000
AcDbSavedByObjectVersion
1070
     0
  0
VISUALSTYLE
  5
3F
102
{ACAD_XDICTIONARY
360
417
102
}
102
{ACAD_REACTORS
330
29
102
}
330
29
100
AcDbVisualStyle
  2
JitterOff
 70
    20
177
     2
291
     1
 71
     2
176
     0
 72
     2
176
     0
 73
     0
176
     0
 90
        0
176
     0
 40
0.6
176
     0
 41
30.0
176
     0
 63
     7
421
 16777215
176
     0
 74
     1
176
     0
 91
        4
176
     0
 64
     7
176
     0
 65
   257
176
     0
 75
     1
176
     0
175
     1
176
     0
 42
1.0
176
     0
 92
       10
176
     2
 66
     7
176
     0
 43
1.0
176
     0
 76
     1
176
     0
 77
     6
176
     0
 78
     2
176
     0
 67
     7
176
     0
 79
     5
176
     0
170
     0
176
     0
171
     0
176
     0
290
     0
176
     0
 93
        1
176
     0
 44
0.0
176
     0
173
     0
176
     0
1001
ACAD
1000
AcDbSavedByObjectVersion
1070
     0
  0
VISUALSTYLE
  5
37
102
{ACAD_XDICTIONARY
360
407
102
}
102
{ACAD_REACTORS
330
29
102
}
330
29
100
AcDbVisualStyle
  2
Linepattern
 70
    14
177
     2
291
     1
 71
     2
176
     1
 72
     2
176
     1
 73
     0
176
     1
 90
        0
176
     1
 40
0.6
176
     1
 41
30.0
176
     1
 63
     7
421
 16777215
176
     1
 74
     1
176
     1
 91
        4
176
     1
 64
     7
176
     1
 65
   257
176
     1
 75
     7
176
     1
175
     7
176
     1
 42
1.0
176
     1
 92
        8
176
     1
 66
     7
176
     1
 43
1.0
176
     1
 76
     1
176
     1
 77
     6
176
     1
 78
     2
176
     1
 67
     7
176
     1
 79
     5
176
     1
170
     0
176
     1
171
     0
176
     1
290
     0
176
     1
 93
        1
176
     1
 44
0.0
176
     1
173
     0
176
     1
1001
ACAD
1000
AcDbSavedByObjectVersion
1070
     0
  0
VISUALSTYLE
  5
40
102
{ACAD_XDICTIONARY
360
419
102
}
102
{ACAD_REACTORS
330
29
102
}
330
29
100
AcDbVisualStyle
  2
OverhangOff
 70
    21
177
     2
291
     1
 71
     2
176
     0
 72
     2
176
     0
 73
     0
176
     0
 90
        0
176
     0
 40
0.6
176
     0
 41
30.0
176
     0
 63
     7
421
 16777215
176
     0
 74
     1
176
     0
 91
        4
176
     0
 64
     7
176
     0
 65
   257
176
     0
 75
     1
176
     0
175
     1
176
     0
 42
1.0
176
     0
 92
        9
176
     2
 66
     7
176
     0
 43
1.0
176
     0
 76
     1
176
     0
 77
     6
176
     0
 78
     2
176
     0
 67
     7
176
     0
 79
     5
176
     0
170
     0
176
     0
171
     0
176
     0
290
     0
176
     0
 93
        1
176
     0
 44
0.0
176
     0
173
     0
176
     0
1001
ACAD
1000
AcDbSavedByObjectVersion
1070
     0
  0
VISUALSTYLE
  5
33
102
{ACAD_XDICTIONARY
360
3FF
102
}
102
{ACAD_REACTORS
330
29
102
}
330
29
100
AcDbVisualStyle
  2
Realistic
 70
     8
177
     2
291
     0
 71
     2
176
     1
 72
     3
176
     1
 73
     0
176
     1
 90
        2
176
     1
 40
0.6
176
     1
 41
30.0
176
     1
 63
     7
421
 16777215
176
     1
 74
     0
176
     1
 91
        0
176
     1
 64
     7
176
     1
 65
   257
176
     1
 75
     1
176
     1
175
     1
176
     1
 42
1.0
176
     1
 92
        8
176
     1
 66
   257
176
     1
 43
1.0
176
     1
 76
     1
176
     1
 77
     6
176
     1
 78
     2
176
     1
 67
     7
176
     1
 79
     3
176
     1
170
     0
176
     1
171
     0
176
     1
290
     0
176
     1
 93
       13
176
     1
 44
0.0
176
     1
173
     0
176
     1
1001
ACAD
1000
AcDbSavedByObjectVersion
1070
     0
  0
VISUALSTYLE
  5
3E
102
{ACAD_XDICTIONARY
360
415
102
}
102
{ACAD_REACTORS
330
29
102
}
330
29
100
AcDbVisualStyle
  2
Shaded
 70
    27
177
     2
291
     0
 71
     2
176
     1
 72
     2
176
     1
 73
     1
176
     1
 90
        2
176
     1
 40
0.6
176
     1
 41
30.0
176
     1
 63
     7
421
 16777215
176
     1
 74
     0
176
     1
 91
        4
176
     1
 64
     7
176
     1
 65
   257
176
     1
 75
     1
176
     1
175
     1
176
     1
 42
1.0
176
     1
 92
        8
176
     1
 66
   257
176
     1
 43
1.0
176
     1
 76
     1
176
     1
 77
     6
176
     1
 78
     2
176
     1
 67
     8
425
  7895160
176
     1
 79
     3
176
     1
170
     0
176
     1
171
     0
176
     1
290
     0
176
     1
 93
        5
176
     1
 44
0.0
176
     1
173
     0
176
     1
1001
ACAD
1000
AcDbSavedByObjectVersion
1070
     0
  0
VISUALSTYLE
  5
3D
102
{ACAD_XDICTIONARY
360
413
102
}
102
{ACAD_REACTORS
330
29
102
}
330
29
100
AcDbVisualStyle
  2
Shaded with edges
 70
    26
177
     2
291
     0
 71
     2
176
     1
 72
     2
176
     1
 73
     1
176
     1
 90
        2
176
     1
 40
0.6
176
     1
 41
30.0
176
     1
 63
     7
421
 16777215
176
     1
 74
     1
176
     1
 91
        2
176
     1
 64
     7
176
     1
 65
   257
176
     1
 75
     2
176
     1
175
     1
176
     1
 42
1.0
176
     1
 92
        8
176
     1
 66
   257
176
     1
 43
1.0
176
     1
 76
     1
176
     1
 77
     6
176
     1
 78
     2
176
     1
 67
     7
176
     1
 79
     3
176
     1
170
     0
176
     1
171
     0
176
     1
290
     0
176
     1
 93
        5
176
     1
 44
0.0
176
     1
173
     0
176
     1
1001
ACAD
1000
AcDbSavedByObjectVersion
1070
     0
  0
VISUALSTYLE
  5
3A
102
{ACAD_XDICTIONARY
360
40D
102
}
102
{ACAD_REACTORS
330
29
102
}
330
29
100
AcDbVisualStyle
  2
Shades of Gray
 70
    23
177
     2
291
     0
 71
     2
176
     1
 72
     2
176
     1
 73
     3
176
     1
 90
        0
176
     1
 40
0.6
176
     1
 41
30.0
176
     1
 63
     7
421
 16777215
176
     1
 74
     2
176
     1
 91
        2
176
     1
 64
     7
176
     1
 65
     7
176
     1
 75
     1
176
     1
175
     1
176
     1
 42
40.0
176
     1
 92
        8
176
     1
 66
     7
176
     1
 43
1.0
176
     1
 76
     1
176
     1
 77
     6
176
     1
 78
     2
176
     1
 67
     7
176
     1
 79
     3
176
     1
170
     0
176
     1
171
     0
176
     1
290
     0
176
     1
 93
        1
176
     1
 44
0.0
176
     1
173
     0
176
     1
1001
ACAD
1000
AcDbSavedByObjectVersion
1070
     0
  0
VISUALSTYLE
  5
3B
102
{ACAD_XDICTIONARY
360
40F
102
}
102
{ACAD_REACTORS
330
29
102
}
330
29
100
AcDbVisualStyle
  2
Sketchy
 70
    24
177
     2
291
     0
 71
     1
176
     1
 72
     2
176
     1
 73
     2
176
     1
 90
        0
176
     1
 40
0.6
176
     1
 41
30.0
176
     1
 63
     7
421
 16777215
176
     1
 74
     2
176
     1
 91
        2
176
     1
 64
     7
176
     1
 65
     7
176
     1
 75
     1
176
     1
175
     1
176
     1
 42
40.0
176
     1
 92
       11
176
     1
 66
     7
176
     1
 43
1.0
176
     1
 76
     1
176
     1
 77
     6
176
     1
 78
     2
176
     1
 67
     7
176
     1
 79
     6
176
     1
170
     0
176
     1
171
     0
176
     1
290
     0
176
     1
 93
        1
176
     1
 44
0.0
176
     1
173
     0
176
     1
1001
ACAD
1000
AcDbSavedByObjectVersion
1070
     0
  0
VISUALSTYLE
  5
36
102
{ACAD_XDICTIONARY
360
405
102
}
102
{ACAD_REACTORS
330
29
102
}
330
29
100
AcDbVisualStyle
  2
Thicken
 70
    13
177
     2
291
     1
 71
     2
176
     1
 72
     2
176
     1
 73
     0
176
     1
 90
        0
176
     1
 40
0.6
176
     1
 41
30.0
176
     1
 63
     7
421
 16777215
176
     1
 74
     1
176
     1
 91
        4
176
     1
 64
     7
176
     1
 65
   257
176
     1
 75
     1
176
     1
175
     1
176
     1
 42
1.0
176
     1
 92
       12
176
     1
 66
     7
176
     1
 43
1.0
176
     1
 76
     1
176
     1
 77
     6
176
     1
 78
     2
176
     1
 67
     7
176
     1
 79
     5
176
     1
170
     0
176
     1
171
     0
176
     1
290
     0
176
     1
 93
        1
176
     1
 44
0.0
176
     1
173
     0
176
     1
1001
ACAD
1000
AcDbSavedByObjectVersion
1070
     0
  0
VISUALSTYLE
  5
30
102
{ACAD_XDICTIONARY
360
3F9
102
}
102
{ACAD_REACTORS
330
29
102
}
330
29
100
AcDbVisualStyle
  2
Wireframe
 70
     5
177
     2
291
     0
 71
     0
176
     1
 72
     2
176
     1
 73
     0
176
     1
 90
        0
176
     1
 40
0.6
176
     1
 41
30.0
176
     1
 63
     7
421
 16777215
176
     1
 74
     1
176
     1
 91
        4
176
     1
 64
     7
176
     1
 65
   257
176
     1
 75
     1
176
     1
175
     1
176
     1
 42
1.0
176
     1
 92
        0
176
     1
 66
   257
176
     1
 43
1.0
176
     1
 76
     1
176
     1
 77
     6
176
     1
 78
     2
176
     1
 67
     7
176
     1
 79
     3
176
     1
170
     0
176
     1
171
     0
176
     1
290
     0
176
     1
 93
        1
176
     1
 44
0.0
176
     1
173
     0
176
     1
1001
ACAD
1000
AcDbSavedByObjectVersion
1070
     0
  0
VISUALSTYLE
  5
3C
102
{ACAD_XDICTIONARY
360
411
102
}
102
{ACAD_REACTORS
330
29
102
}
330
29
100
AcDbVisualStyle
  2
X-Ray
 70
    25
177
     2
291
     0
 71
     2
176
     1
 72
     2
176
     1
 73
     1
176
     1
 90
        1
176
     1
 40
0.5
176
     1
 41
30.0
176
     1
 63
     7
421
 16777215
176
     1
 74
     1
176
     1
 91
        0
176
     1
 64
     7
176
     1
 65
   257
176
     1
 75
     1
176
     1
175
     1
176
     1
 42
1.0
176
     1
 92
        8
176
     1
 66
     7
176
     1
 43
1.0
176
     1
 76
     1
176
     1
 77
     6
176
     1
 78
     2
176
     1
 67
     7
176
     1
 79
     3
176
     1
170
     0
176
     1
171
     0
176
     1
290
     0
176
     1
 93
       13
176
     1
 44
0.0
176
     1
173
     0
176
     1
1001
ACAD
1000
AcDbSavedByObjectVersion
1070
     0
  0
DICTIONARYVAR
  5
80
102
{ACAD_REACTORS
330
7B
102
}
330
7B
100
DictionaryVariables
280
     0
  1
1:1
  0
DICTIONARYVAR
  5
7D
102
{ACAD_REACTORS
330
7B
102
}
330
7B
100
DictionaryVariables
280
     0
  1
STANDARD
  0
DICTIONARYVAR
  5
7C
102
{ACAD_REACTORS
330
7B
102
}
330
7B
100
DictionaryVariables
280
     0
  1
STANDARD
  0
DICTIONARYVAR
  5
7E
102
{ACAD_REACTORS
330
7B
102
}
330
7B
100
DictionaryVariables
280
     0
  1
Imperial24
  0
DICTIONARYVAR
  5
7F
102
{ACAD_REACTORS
330
7B
102
}
330
7B
100
DictionaryVariables
280
     0
  1
Imperial24
  0
XRECORD
  5
2DA
102
{ACAD_REACTORS
330
2D6
102
}
330
2D6
100
AcDbXrecord
280
     1
  1
BUILDING_ID
  1
02208
  1
FLOOR_ID
  1
878810
  0
XRECORD
  5
2D8
102
{ACAD_REACTORS
330
2D6
102
}
330
2D6
100
AcDbXrecord
280
     1
  1
-2000011
  1
Muri
  1
-2000032
  1
Pavimenti
  1
-2000035
  1
Tetti
  1
-2000100
  1
Pilastri
  1
-2001320
  1
Telaio strutturale
  0
XRECORD
  5
2D9
102
{ACAD_REACTORS
330
2D6
102
}
330
2D6
100
AcDbXrecord
280
     1
  1
-2000586
  1
Bordi comuni
  1
-2000588
  1
Motivo sezione
  1
-2000597
  1
Motivo sezione
  1
-2000598
  1
Bordi interni
  1
-2000609
  1
Bordi interni
  0
XRECORD
  5
2D7
102
{ACAD_REACTORS
330
2D6
102
}
330
2D6
100
AcDbXrecord
280
     1
  1
1187027
  1
Pavimento : PAV_EST_Strada
  1
1194301
  1
Pavimento : PAV_EST_Autobloccanti
  1
1325379
  1
Muro di base : MUR_ME_Survey_85 cm : MUR_ME_Survey_85 cm
  1
1350280
  1
Tetto di base : Tetto Cavallerizza_Coppi
  1
1350691
  1
Muro di base : MUR_ME_Survey_77 cm : MUR_ME_Survey_77 cm
  1
1359853
  1
Muri 32 : Muri 32
  1
1363658
  1
Muri 41 : Muri 33
  1
1649746
  1
Tetto di base : Tetto Cavallerizza_Orditura portante
  1
1655002
  1
Muri 52 : Muri 52
  1
1657618
  1
Muri 18 : Muri 18
  1
1658488
  1
Muri 19 : Muri 19
  1
1666129
  1
Pavimento : PAV_INT_Survey_sp.40cm
  1
711993
  1
Pilastro - Rettangolare : 25 x 25 cm
  1
879041
  1
Pavimento : PAV_INT_Survey_sp.12 cm
  1
885710
  1
Telaio strutturale 5 : Telaio strutturale 1
  1
890677
  1
Telaio strutturale 10 : Telaio strutturale 2
  1
908847
  1
Telaio strutturale 17 : Telaio strutturale 17
  1
915311
  1
Tetto di base : Tetto Cavallerizza_Sottomanto
  1
924359
  1
Muro di base : MUR_MI_Survey_32 cm : MUR_MI_Survey_32 cm
  0
DICTIONARY
  5
421
330
6B
100
AcDbDictionary
280
     1
281
     1
  3
ACAD_XREC_ROUNDTRIP
360
422
  0
DICTIONARY
  5
425
330
319
100
AcDbDictionary
280
     1
281
     1
  3
ACAD_XREC_ROUNDTRIP
360
426
  0
DICTIONARY
  5
1A
330
19
100
AcDbDictionary
280
     1
281
     1
  3
BUMPTILE
360
1C
  3
DIFFUSETILE
360
1B
  3
OPACITYTILE
360
1F
  3
REFLECTIONTILE
360
1E
  3
REFRACTIONTILE
360
20
  3
SPECULARTILE
360
1D
  0
DICTIONARY
  5
12
330
11
100
AcDbDictionary
280
     1
281
     1
  3
BUMPTILE
360
14
  3
DIFFUSETILE
360
13
  3
OPACITYTILE
360
17
  3
REFLECTIONTILE
360
16
  3
REFRACTIONTILE
360
18
  3
SPECULARTILE
360
15
  0
DICTIONARY
  5
22
330
21
100
AcDbDictionary
280
     1
281
     1
  3
BUMPTILE
360
24
  3
DIFFUSETILE
360
23
  3
OPACITYTILE
360
27
  3
REFLECTIONTILE
360
26
  3
REFRACTIONTILE
360
28
  3
SPECULARTILE
360
25
  0
DICTIONARY
  5
41D
330
67
100
AcDbDictionary
280
     1
281
     1
  3
ACAD_XREC_ROUNDTRIP
360
41E
  0
DICTIONARY
  5
41F
330
69
100
AcDbDictionary
280
     1
281
     1
  3
ACAD_XREC_ROUNDTRIP
360
420
  0
DICTIONARY
  5
423
330
318
100
AcDbDictionary
280
     1
281
     1
  3
ACAD_XREC_ROUNDTRIP
360
424
  0
DICTIONARY
  5
2DD
330
65
100
AcDbDictionary
280
     1
281
     1
  3
ACAD_ROUNDTRIP_2008_TABLESTYLE_CELLSTYLEMAP
360
3EB
  0
DICTIONARY
  5
3F7
330
2F
100
AcDbDictionary
280
     1
281
     1
  3
ACAD_XREC_ROUNDTRIP
360
3F8
  0
DICTIONARY
  5
3F5
330
2E
100
AcDbDictionary
280
     1
281
     1
  3
ACAD_XREC_ROUNDTRIP
360
3F6
  0
DICTIONARY
  5
403
330
35
100
AcDbDictionary
280
     1
281
     1
  3
ACAD_XREC_ROUNDTRIP
360
404
  0
DICTIONARY
  5
40B
330
39
100
AcDbDictionary
280
     1
281
     1
  3
ACAD_XREC_ROUNDTRIP
360
40C
  0
DICTIONARY
  5
3FD
330
32
100
AcDbDictionary
280
     1
281
     1
  3
ACAD_XREC_ROUNDTRIP
360
3FE
  0
DICTIONARY
  5
401
330
34
100
AcDbDictionary
280
     1
281
     1
  3
ACAD_XREC_ROUNDTRIP
360
402
  0
DICTIONARY
  5
41B
330
41
100
AcDbDictionary
280
     1
281
     1
  3
ACAD_XREC_ROUNDTRIP
360
41C
  0
DICTIONARY
  5
409
330
38
100
AcDbDictionary
280
     1
281
     1
  3
ACAD_XREC_ROUNDTRIP
360
40A
  0
DICTIONARY
  5
3ED
330
2A
100
AcDbDictionary
280
     1
281
     1
  3
ACAD_XREC_ROUNDTRIP
360
3EE
  0
DICTIONARY
  5
3EF
330
2B
100
AcDbDictionary
280
     1
281
     1
  3
ACAD_XREC_ROUNDTRIP
360
3F0
  0
DICTIONARY
  5
3F1
330
2C
100
AcDbDictionary
280
     1
281
     1
  3
ACAD_XREC_ROUNDTRIP
360
3F2
  0
DICTIONARY
  5
3F3
330
2D
100
AcDbDictionary
280
     1
281
     1
  3
ACAD_XREC_ROUNDTRIP
360
3F4
  0
DICTIONARY
  5
3FB
330
31
100
AcDbDictionary
280
     1
281
     1
  3
ACAD_XREC_ROUNDTRIP
360
3FC
  0
DICTIONARY
  5
417
330
3F
100
AcDbDictionary
280
     1
281
     1
  3
ACAD_XREC_ROUNDTRIP
360
418
  0
DICTIONARY
  5
407
330
37
100
AcDbDictionary
280
     1
281
     1
  3
ACAD_XREC_ROUNDTRIP
360
408
  0
DICTIONARY
  5
419
330
40
100
AcDbDictionary
280
     1
281
     1
  3
ACAD_XREC_ROUNDTRIP
360
41A
  0
DICTIONARY
  5
3FF
330
33
100
AcDbDictionary
280
     1
281
     1
  3
ACAD_XREC_ROUNDTRIP
360
400
  0
DICTIONARY
  5
415
330
3E
100
AcDbDictionary
280
     1
281
     1
  3
ACAD_XREC_ROUNDTRIP
360
416
  0
DICTIONARY
  5
413
330
3D
100
AcDbDictionary
280
     1
281
     1
  3
ACAD_XREC_ROUNDTRIP
360
414
  0
DICTIONARY
  5
40D
330
3A
100
AcDbDictionary
280
     1
281
     1
  3
ACAD_XREC_ROUNDTRIP
360
40E
  0
DICTIONARY
  5
40F
330
3B
100
AcDbDictionary
280
     1
281
     1
  3
ACAD_XREC_ROUNDTRIP
360
410
  0
DICTIONARY
  5
405
330
36
100
AcDbDictionary
280
     1
281
     1
  3
ACAD_XREC_ROUNDTRIP
360
406
  0
DICTIONARY
  5
3F9
330
30
100
AcDbDictionary
280
     1
281
     1
  3
ACAD_XREC_ROUNDTRIP
360
3FA
  0
DICTIONARY
  5
411
330
3C
100
AcDbDictionary
280
     1
281
     1
  3
ACAD_XREC_ROUNDTRIP
360
412
  0
XRECORD
  5
422
102
{ACAD_REACTORS
330
421
102
}
330
421
100
AcDbXrecord
280
     1
102
DISPLAYNAME
  1
Imperial24
102
FLAGS
 90
        0
  0
XRECORD
  5
426
102
{ACAD_REACTORS
330
425
102
}
330
425
100
AcDbXrecord
280
     1
102
DISPLAYNAME
  1
Metric50
102
FLAGS
 90
        0
  0
XRECORD
  5
1C
102
{ACAD_REACTORS
330
1A
102
}
330
1A
100
AcDbXrecord
280
     1
270
     1
271
     1
  0
XRECORD
  5
1B
102
{ACAD_REACTORS
330
1A
102
}
330
1A
100
AcDbXrecord
280
     1
270
     1
271
     1
  0
XRECORD
  5
1F
102
{ACAD_REACTORS
330
1A
102
}
330
1A
100
AcDbXrecord
280
     1
270
     1
271
     1
  0
XRECORD
  5
1E
102
{ACAD_REACTORS
330
1A
102
}
330
1A
100
AcDbXrecord
280
     1
270
     1
271
     1
  0
XRECORD
  5
20
102
{ACAD_REACTORS
330
1A
102
}
330
1A
100
AcDbXrecord
280
     1
270
     1
271
     1
  0
XRECORD
  5
1D
102
{ACAD_REACTORS
330
1A
102
}
330
1A
100
AcDbXrecord
280
     1
270
     1
271
     1
  0
XRECORD
  5
14
102
{ACAD_REACTORS
330
12
102
}
330
12
100
AcDbXrecord
280
     1
270
     1
271
     1
  0
XRECORD
  5
13
102
{ACAD_REACTORS
330
12
102
}
330
12
100
AcDbXrecord
280
     1
270
     1
271
     1
  0
XRECORD
  5
17
102
{ACAD_REACTORS
330
12
102
}
330
12
100
AcDbXrecord
280
     1
270
     1
271
     1
  0
XRECORD
  5
16
102
{ACAD_REACTORS
330
12
102
}
330
12
100
AcDbXrecord
280
     1
270
     1
271
     1
  0
XRECORD
  5
18
102
{ACAD_REACTORS
330
12
102
}
330
12
100
AcDbXrecord
280
     1
270
     1
271
     1
  0
XRECORD
  5
15
102
{ACAD_REACTORS
330
12
102
}
330
12
100
AcDbXrecord
280
     1
270
     1
271
     1
  0
XRECORD
  5
24
102
{ACAD_REACTORS
330
22
102
}
330
22
100
AcDbXrecord
280
     1
270
     1
271
     1
  0
XRECORD
  5
23
102
{ACAD_REACTORS
330
22
102
}
330
22
100
AcDbXrecord
280
     1
270
     1
271
     1
  0
XRECORD
  5
27
102
{ACAD_REACTORS
330
22
102
}
330
22
100
AcDbXrecord
280
     1
270
     1
271
     1
  0
XRECORD
  5
26
102
{ACAD_REACTORS
330
22
102
}
330
22
100
AcDbXrecord
280
     1
270
     1
271
     1
  0
XRECORD
  5
28
102
{ACAD_REACTORS
330
22
102
}
330
22
100
AcDbXrecord
280
     1
270
     1
271
     1
  0
XRECORD
  5
25
102
{ACAD_REACTORS
330
22
102
}
330
22
100
AcDbXrecord
280
     1
270
     1
271
     1
  0
XRECORD
  5
41E
102
{ACAD_REACTORS
330
41D
102
}
330
41D
100
AcDbXrecord
280
     1
102
ACAD_ROUNDTRIP_2012_MLEADER_STYLE
298
     1
  0
XRECORD
  5
420
102
{ACAD_REACTORS
330
41F
102
}
330
41F
100
AcDbXrecord
280
     1
102
DISPLAYNAME
  1
Imperial24
102
FLAGS
 90
        0
  0
XRECORD
  5
424
102
{ACAD_REACTORS
330
423
102
}
330
423
100
AcDbXrecord
280
     1
102
DISPLAYNAME
  1
Metric50
102
FLAGS
 90
        0
  0
CELLSTYLEMAP
  5
3EB
102
{ACAD_REACTORS
330
2DD
102
}
330
2DD
100
AcDbCellStyleMap
 90
        3
300
CELLSTYLE
  1
TABLEFORMAT_BEGIN
 90
        5
170
     1
 91
        0
 92
    32768
 62
   257
 93
        1
300
CONTENTFORMAT
  1
CONTENTFORMAT_BEGIN
 90
        0
 91
        0
 92
      512
 93
        0
300

 40
0.0
140
1.0
 94
        5
 62
     0
340
55
144
0.25
309
CONTENTFORMAT_END
171
     1
301
MARGIN
  1
CELLMARGIN_BEGIN
 40
0.06
 40
0.06
 40
0.06
 40
0.06
 40
0.18
 40
0.18
309
CELLMARGIN_END
 94
        6
 95
        1
302
GRIDFORMAT
  1
GRIDFORMAT_BEGIN
 90
        0
 91
        1
 62
     0
 92
       -2
340
0
 93
        0
 40
0.045
309
GRIDFORMAT_END
 95
        2
302
GRIDFORMAT
  1
GRIDFORMAT_BEGIN
 90
        0
 91
        1
 62
     0
 92
       -2
340
0
 93
        0
 40
0.045
309
GRIDFORMAT_END
 95
        4
302
GRIDFORMAT
  1
GRIDFORMAT_BEGIN
 90
        0
 91
        1
 62
     0
 92
       -2
340
0
 93
        0
 40
0.045
309
GRIDFORMAT_END
 95
        8
302
GRIDFORMAT
  1
GRIDFORMAT_BEGIN
 90
        0
 91
        1
 62
     0
 92
       -2
340
0
 93
        0
 40
0.045
309
GRIDFORMAT_END
 95
       16
302
GRIDFORMAT
  1
GRIDFORMAT_BEGIN
 90
        0
 91
        1
 62
     0
 92
       -2
340
0
 93
        0
 40
0.045
309
GRIDFORMAT_END
 95
       32
302
GRIDFORMAT
  1
GRIDFORMAT_BEGIN
 90
        0
 91
        1
 62
     0
 92
       -2
340
0
 93
        0
 40
0.045
309
GRIDFORMAT_END
309
TABLEFORMAT_END
  1
CELLSTYLE_BEGIN
 90
        1
 91
        1
300
_TITLE
309
CELLSTYLE_END
300
CELLSTYLE
  1
TABLEFORMAT_BEGIN
 90
        5
170
     1
 91
        0
 92
        0
 62
   257
 93
        1
300
CONTENTFORMAT
  1
CONTENTFORMAT_BEGIN
 90
        0
 91
        0
 92
      512
 93
        0
300

 40
0.0
140
1.0
 94
        5
 62
     0
340
55
144
0.18
309
CONTENTFORMAT_END
171
     1
301
MARGIN
  1
CELLMARGIN_BEGIN
 40
0.06
 40
0.06
 40
0.06
 40
0.06
 40
0.18
 40
0.18
309
CELLMARGIN_END
 94
        6
 95
        1
302
GRIDFORMAT
  1
GRIDFORMAT_BEGIN
 90
        0
 91
        1
 62
     0
 92
       -2
340
0
 93
        0
 40
0.045
309
GRIDFORMAT_END
 95
        2
302
GRIDFORMAT
  1
GRIDFORMAT_BEGIN
 90
        0
 91
        1
 62
     0
 92
       -2
340
0
 93
        0
 40
0.045
309
GRIDFORMAT_END
 95
        4
302
GRIDFORMAT
  1
GRIDFORMAT_BEGIN
 90
        0
 91
        1
 62
     0
 92
       -2
340
0
 93
        0
 40
0.045
309
GRIDFORMAT_END
 95
        8
302
GRIDFORMAT
  1
GRIDFORMAT_BEGIN
 90
        0
 91
        1
 62
     0
 92
       -2
340
0
 93
        0
 40
0.045
309
GRIDFORMAT_END
 95
       16
302
GRIDFORMAT
  1
GRIDFORMAT_BEGIN
 90
        0
 91
        1
 62
     0
 92
       -2
340
0
 93
        0
 40
0.045
309
GRIDFORMAT_END
 95
       32
302
GRIDFORMAT
  1
GRIDFORMAT_BEGIN
 90
        0
 91
        1
 62
     0
 92
       -2
340
0
 93
        0
 40
0.045
309
GRIDFORMAT_END
309
TABLEFORMAT_END
  1
CELLSTYLE_BEGIN
 90
        2
 91
        1
300
_HEADER
309
CELLSTYLE_END
300
CELLSTYLE
  1
TABLEFORMAT_BEGIN
 90
        5
170
     1
 91
        0
 92
        0
 62
   257
 93
        1
300
CONTENTFORMAT
  1
CONTENTFORMAT_BEGIN
 90
        0
 91
        0
 92
      512
 93
        0
300

 40
0.0
140
1.0
 94
        2
 62
     0
340
55
144
0.18
309
CONTENTFORMAT_END
171
     1
301
MARGIN
  1
CELLMARGIN_BEGIN
 40
0.06
 40
0.06
 40
0.06
 40
0.06
 40
0.18
 40
0.18
309
CELLMARGIN_END
 94
        6
 95
        1
302
GRIDFORMAT
  1
GRIDFORMAT_BEGIN
 90
        0
 91
        1
 62
     0
 92
       -2
340
0
 93
        0
 40
0.045
309
GRIDFORMAT_END
 95
        2
302
GRIDFORMAT
  1
GRIDFORMAT_BEGIN
 90
        0
 91
        1
 62
     0
 92
       -2
340
0
 93
        0
 40
0.045
309
GRIDFORMAT_END
 95
        4
302
GRIDFORMAT
  1
GRIDFORMAT_BEGIN
 90
        0
 91
        1
 62
     0
 92
       -2
340
0
 93
        0
 40
0.045
309
GRIDFORMAT_END
 95
        8
302
GRIDFORMAT
  1
GRIDFORMAT_BEGIN
 90
        0
 91
        1
 62
     0
 92
       -2
340
0
 93
        0
 40
0.045
309
GRIDFORMAT_END
 95
       16
302
GRIDFORMAT
  1
GRIDFORMAT_BEGIN
 90
        0
 91
        1
 62
     0
 92
       -2
340
0
 93
        0
 40
0.045
309
GRIDFORMAT_END
 95
       32
302
GRIDFORMAT
  1
GRIDFORMAT_BEGIN
 90
        0
 91
        1
 62
     0
 92
       -2
340
0
 93
        0
 40
0.045
309
GRIDFORMAT_END
309
TABLEFORMAT_END
  1
CELLSTYLE_BEGIN
 90
        3
 91
        2
300
_DATA
309
CELLSTYLE_END
  0
XRECORD
  5
3F8
102
{ACAD_REACTORS
330
3F7
102
}
330
3F7
100
AcDbXrecord
280
     1
102
RTVSPost2010Prop28
280
     1
102
RTVSPost2010PropOp28
 70
     1
102
RTVSPost2010Prop29
280
     1
102
RTVSPost2010PropOp29
 70
     1
102
RTVSPost2010Prop30
280
     0
102
RTVSPost2010PropOp30
 70
     1
102
RTVSPost2010Prop31
280
     0
102
RTVSPost2010PropOp31
 70
     1
102
RTVSPost2010Prop32
280
     0
102
RTVSPost2010PropOp32
 70
     1
102
RTVSPost2010Prop33
280
     0
102
RTVSPost2010PropOp33
 70
     1
102
RTVSPost2010Prop34
280
     0
102
RTVSPost2010PropOp34
 70
     1
102
RTVSPost2010Prop35
280
     0
102
RTVSPost2010PropOp35
 70
     1
102
RTVSPost2010Prop36
280
     0
102
RTVSPost2010PropOp36
 70
     1
102
RTVSPost2010Prop37
 90
       50
102
RTVSPost2010PropOp37
 70
     1
102
RTVSPost2010Prop38
140
0.0
102
RTVSPost2010PropOp38
 70
     1
102
RTVSPost2010Prop39
140
1.0
102
RTVSPost2010PropOp39
 70
     1
102
RTVSPost2010Prop40
 90
        0
102
RTVSPost2010PropOp40
 70
     1
102
RTVSPost2010Prop41ColorIndex
 90
       18
102
RTVSPost2010Prop41ColorRGB
 90
        0
102
RTVSPost2010PropOp41
 70
     1
102
RTVSPost2010Prop42
 90
       50
102
RTVSPost2010PropOp42
 70
     1
102
RTVSPost2010Prop43
 90
        3
102
RTVSPost2010PropOp43
 70
     1
102
RTVSPost2010Prop44ColorIndex
 90
        5
102
RTVSPost2010Prop44ColorRGB
 90
      255
102
RTVSPost2010PropOp44
 70
     1
102
RTVSPost2010Prop45
280
     0
102
RTVSPost2010PropOp45
 70
     1
102
RTVSPost2010Prop46
 90
       50
102
RTVSPost2010PropOp46
 70
     1
102
RTVSPost2010Prop47
 90
       50
102
RTVSPost2010PropOp47
 70
     1
102
RTVSPost2010Prop48
 90
       50
102
RTVSPost2010PropOp48
 70
     1
102
RTVSPost2010Prop49
280
     0
102
RTVSPost2010PropOp49
 70
     1
102
RTVSPost2010Prop50
 90
       50
102
RTVSPost2010PropOp50
 70
     1
102
RTVSPost2010Prop51ColorIndex
 90
      256
102
RTVSPost2010Prop51ColorRGB
 90
-16777216
102
RTVSPost2010PropOp51
 70
     0
102
RTVSPost2010Prop52
140
1.0
102
RTVSPost2010PropOp52
 70
     0
102
RTVSPost2010Prop53
 90
        2
102
RTVSPost2010PropOp53
 70
     1
102
RTVSPost2010Prop54
  1
strokes_ogs.tif
102
RTVSPost2010PropOp54
 70
     1
102
RTVSPost2010Prop55
280
     0
102
RTVSPost2010PropOp55
 70
     1
102
RTVSPost2010Prop56
140
1.0
102
RTVSPost2010PropOp56
 70
     1
102
RTVSPost2010Prop57
140
1.0
102
RTVSPost2010PropOp57
 70
     1
  0
XRECORD
  5
3F6
102
{ACAD_REACTORS
330
3F5
102
}
330
3F5
100
AcDbXrecord
280
     1
102
RTVSPost2010Prop28
280
     0
102
RTVSPost2010PropOp28
 70
     1
102
RTVSPost2010Prop29
280
     1
102
RTVSPost2010PropOp29
 70
     1
102
RTVSPost2010Prop30
280
     1
102
RTVSPost2010PropOp30
 70
     1
102
RTVSPost2010Prop31
280
     0
102
RTVSPost2010PropOp31
 70
     1
102
RTVSPost2010Prop32
280
     0
102
RTVSPost2010PropOp32
 70
     1
102
RTVSPost2010Prop33
280
     0
102
RTVSPost2010PropOp33
 70
     1
102
RTVSPost2010Prop34
280
     0
102
RTVSPost2010PropOp34
 70
     1
102
RTVSPost2010Prop35
280
     0
102
RTVSPost2010PropOp35
 70
     1
102
RTVSPost2010Prop36
280
     0
102
RTVSPost2010PropOp36
 70
     1
102
RTVSPost2010Prop37
 90
       50
102
RTVSPost2010PropOp37
 70
     1
102
RTVSPost2010Prop38
140
0.0
102
RTVSPost2010PropOp38
 70
     1
102
RTVSPost2010Prop39
140
1.0
102
RTVSPost2010PropOp39
 70
     1
102
RTVSPost2010Prop40
 90
        0
102
RTVSPost2010PropOp40
 70
     1
102
RTVSPost2010Prop41ColorIndex
 90
       18
102
RTVSPost2010Prop41ColorRGB
 90
        0
102
RTVSPost2010PropOp41
 70
     1
102
RTVSPost2010Prop42
 90
       50
102
RTVSPost2010PropOp42
 70
     1
102
RTVSPost2010Prop43
 90
        3
102
RTVSPost2010PropOp43
 70
     1
102
RTVSPost2010Prop44ColorIndex
 90
        5
102
RTVSPost2010Prop44ColorRGB
 90
      255
102
RTVSPost2010PropOp44
 70
     1
102
RTVSPost2010Prop45
280
     0
102
RTVSPost2010PropOp45
 70
     1
102
RTVSPost2010Prop46
 90
       50
102
RTVSPost2010PropOp46
 70
     1
102
RTVSPost2010Prop47
 90
       50
102
RTVSPost2010PropOp47
 70
     1
102
RTVSPost2010Prop48
 90
       50
102
RTVSPost2010PropOp48
 70
     1
102
RTVSPost2010Prop49
280
     0
102
RTVSPost2010PropOp49
 70
     1
102
RTVSPost2010Prop50
 90
       50
102
RTVSPost2010PropOp50
 70
     1
102
RTVSPost2010Prop51ColorIndex
 90
      256
102
RTVSPost2010Prop51ColorRGB
 90
-16777216
102
RTVSPost2010PropOp51
 70
     0
102
RTVSPost2010Prop52
140
1.0
102
RTVSPost2010PropOp52
 70
     0
102
RTVSPost2010Prop53
 90
        2
102
RTVSPost2010PropOp53
 70
     1
102
RTVSPost2010Prop54
  1
strokes_ogs.tif
102
RTVSPost2010PropOp54
 70
     1
102
RTVSPost2010Prop55
280
     0
102
RTVSPost2010PropOp55
 70
     1
102
RTVSPost2010Prop56
140
1.0
102
RTVSPost2010PropOp56
 70
     1
102
RTVSPost2010Prop57
140
1.0
102
RTVSPost2010PropOp57
 70
     1
  0
XRECORD
  5
404
102
{ACAD_REACTORS
330
403
102
}
330
403
100
AcDbXrecord
280
     1
102
RTVSPost2010Prop28
280
     0
102
RTVSPost2010PropOp28
 70
     1
102
RTVSPost2010Prop29
280
     1
102
RTVSPost2010PropOp29
 70
     1
102
RTVSPost2010Prop30
280
     1
102
RTVSPost2010PropOp30
 70
     1
102
RTVSPost2010Prop31
280
     0
102
RTVSPost2010PropOp31
 70
     1
102
RTVSPost2010Prop32
280
     0
102
RTVSPost2010PropOp32
 70
     1
102
RTVSPost2010Prop33
280
     0
102
RTVSPost2010PropOp33
 70
     1
102
RTVSPost2010Prop34
280
     0
102
RTVSPost2010PropOp34
 70
     1
102
RTVSPost2010Prop35
280
     0
102
RTVSPost2010PropOp35
 70
     1
102
RTVSPost2010Prop36
280
     0
102
RTVSPost2010PropOp36
 70
     1
102
RTVSPost2010Prop37
 90
       50
102
RTVSPost2010PropOp37
 70
     1
102
RTVSPost2010Prop38
140
0.0
102
RTVSPost2010PropOp38
 70
     1
102
RTVSPost2010Prop39
140
1.0
102
RTVSPost2010PropOp39
 70
     1
102
RTVSPost2010Prop40
 90
        0
102
RTVSPost2010PropOp40
 70
     1
102
RTVSPost2010Prop41ColorIndex
 90
       18
102
RTVSPost2010Prop41ColorRGB
 90
        0
102
RTVSPost2010PropOp41
 70
     1
102
RTVSPost2010Prop42
 90
       50
102
RTVSPost2010PropOp42
 70
     1
102
RTVSPost2010Prop43
 90
        3
102
RTVSPost2010PropOp43
 70
     1
102
RTVSPost2010Prop44ColorIndex
 90
        5
102
RTVSPost2010Prop44ColorRGB
 90
      255
102
RTVSPost2010PropOp44
 70
     1
102
RTVSPost2010Prop45
280
     0
102
RTVSPost2010PropOp45
 70
     1
102
RTVSPost2010Prop46
 90
       50
102
RTVSPost2010PropOp46
 70
     1
102
RTVSPost2010Prop47
 90
       50
102
RTVSPost2010PropOp47
 70
     1
102
RTVSPost2010Prop48
 90
       50
102
RTVSPost2010PropOp48
 70
     1
102
RTVSPost2010Prop49
280
     0
102
RTVSPost2010PropOp49
 70
     1
102
RTVSPost2010Prop50
 90
       50
102
RTVSPost2010PropOp50
 70
     1
102
RTVSPost2010Prop51ColorIndex
 90
      256
102
RTVSPost2010Prop51ColorRGB
 90
-16777216
102
RTVSPost2010PropOp51
 70
     0
102
RTVSPost2010Prop52
140
1.0
102
RTVSPost2010PropOp52
 70
     0
102
RTVSPost2010Prop53
 90
        2
102
RTVSPost2010PropOp53
 70
     1
102
RTVSPost2010Prop54
  1
strokes_ogs.tif
102
RTVSPost2010PropOp54
 70
     1
102
RTVSPost2010Prop55
280
     0
102
RTVSPost2010PropOp55
 70
     1
102
RTVSPost2010Prop56
140
1.0
102
RTVSPost2010PropOp56
 70
     1
102
RTVSPost2010Prop57
140
1.0
102
RTVSPost2010PropOp57
 70
     1
  0
XRECORD
  5
40C
102
{ACAD_REACTORS
330
40B
102
}
330
40B
100
AcDbXrecord
280
     1
102
RTVSPost2010Prop28
280
     0
102
RTVSPost2010PropOp28
 70
     1
102
RTVSPost2010Prop29
280
     1
102
RTVSPost2010PropOp29
 70
     1
102
RTVSPost2010Prop30
280
     1
102
RTVSPost2010PropOp30
 70
     1
102
RTVSPost2010Prop31
280
     0
102
RTVSPost2010PropOp31
 70
     1
102
RTVSPost2010Prop32
280
     0
102
RTVSPost2010PropOp32
 70
     1
102
RTVSPost2010Prop33
280
     0
102
RTVSPost2010PropOp33
 70
     1
102
RTVSPost2010Prop34
280
     0
102
RTVSPost2010PropOp34
 70
     1
102
RTVSPost2010Prop35
280
     0
102
RTVSPost2010PropOp35
 70
     1
102
RTVSPost2010Prop36
280
     0
102
RTVSPost2010PropOp36
 70
     1
102
RTVSPost2010Prop37
 90
       50
102
RTVSPost2010PropOp37
 70
     1
102
RTVSPost2010Prop38
140
0.0
102
RTVSPost2010PropOp38
 70
     1
102
RTVSPost2010Prop39
140
1.0
102
RTVSPost2010PropOp39
 70
     1
102
RTVSPost2010Prop40
 90
        0
102
RTVSPost2010PropOp40
 70
     1
102
RTVSPost2010Prop41ColorIndex
 90
       18
102
RTVSPost2010Prop41ColorRGB
 90
        0
102
RTVSPost2010PropOp41
 70
     1
102
RTVSPost2010Prop42
 90
       50
102
RTVSPost2010PropOp42
 70
     1
102
RTVSPost2010Prop43
 90
        3
102
RTVSPost2010PropOp43
 70
     1
102
RTVSPost2010Prop44ColorIndex
 90
        5
102
RTVSPost2010Prop44ColorRGB
 90
      255
102
RTVSPost2010PropOp44
 70
     1
102
RTVSPost2010Prop45
280
     0
102
RTVSPost2010PropOp45
 70
     1
102
RTVSPost2010Prop46
 90
       50
102
RTVSPost2010PropOp46
 70
     1
102
RTVSPost2010Prop47
 90
       50
102
RTVSPost2010PropOp47
 70
     1
102
RTVSPost2010Prop48
 90
       50
102
RTVSPost2010PropOp48
 70
     1
102
RTVSPost2010Prop49
280
     0
102
RTVSPost2010PropOp49
 70
     1
102
RTVSPost2010Prop50
 90
       50
102
RTVSPost2010PropOp50
 70
     1
102
RTVSPost2010Prop51ColorIndex
 90
      256
102
RTVSPost2010Prop51ColorRGB
 90
-16777216
102
RTVSPost2010PropOp51
 70
     0
102
RTVSPost2010Prop52
140
1.0
102
RTVSPost2010PropOp52
 70
     0
102
RTVSPost2010Prop53
 90
        2
102
RTVSPost2010PropOp53
 70
     1
102
RTVSPost2010Prop54
  1
strokes_ogs.tif
102
RTVSPost2010PropOp54
 70
     1
102
RTVSPost2010Prop55
280
     0
102
RTVSPost2010PropOp55
 70
     1
102
RTVSPost2010Prop56
140
1.0
102
RTVSPost2010PropOp56
 70
     1
102
RTVSPost2010Prop57
140
1.0
102
RTVSPost2010PropOp57
 70
     1
  0
XRECORD
  5
3FE
102
{ACAD_REACTORS
330
3FD
102
}
330
3FD
100
AcDbXrecord
280
     1
102
RTVSPost2010Prop28
280
     0
102
RTVSPost2010PropOp28
 70
     1
102
RTVSPost2010Prop29
280
     1
102
RTVSPost2010PropOp29
 70
     1
102
RTVSPost2010Prop30
280
     1
102
RTVSPost2010PropOp30
 70
     1
102
RTVSPost2010Prop31
280
     0
102
RTVSPost2010PropOp31
 70
     1
102
RTVSPost2010Prop32
280
     0
102
RTVSPost2010PropOp32
 70
     1
102
RTVSPost2010Prop33
280
     0
102
RTVSPost2010PropOp33
 70
     1
102
RTVSPost2010Prop34
280
     0
102
RTVSPost2010PropOp34
 70
     1
102
RTVSPost2010Prop35
280
     0
102
RTVSPost2010PropOp35
 70
     1
102
RTVSPost2010Prop36
280
     0
102
RTVSPost2010PropOp36
 70
     1
102
RTVSPost2010Prop37
 90
       50
102
RTVSPost2010PropOp37
 70
     1
102
RTVSPost2010Prop38
140
0.0
102
RTVSPost2010PropOp38
 70
     1
102
RTVSPost2010Prop39
140
1.0
102
RTVSPost2010PropOp39
 70
     1
102
RTVSPost2010Prop40
 90
        0
102
RTVSPost2010PropOp40
 70
     1
102
RTVSPost2010Prop41ColorIndex
 90
       18
102
RTVSPost2010Prop41ColorRGB
 90
        0
102
RTVSPost2010PropOp41
 70
     1
102
RTVSPost2010Prop42
 90
       50
102
RTVSPost2010PropOp42
 70
     1
102
RTVSPost2010Prop43
 90
        3
102
RTVSPost2010PropOp43
 70
     1
102
RTVSPost2010Prop44ColorIndex
 90
        5
102
RTVSPost2010Prop44ColorRGB
 90
      255
102
RTVSPost2010PropOp44
 70
     1
102
RTVSPost2010Prop45
280
     0
102
RTVSPost2010PropOp45
 70
     1
102
RTVSPost2010Prop46
 90
       50
102
RTVSPost2010PropOp46
 70
     1
102
RTVSPost2010Prop47
 90
       50
102
RTVSPost2010PropOp47
 70
     1
102
RTVSPost2010Prop48
 90
       50
102
RTVSPost2010PropOp48
 70
     1
102
RTVSPost2010Prop49
280
     0
102
RTVSPost2010PropOp49
 70
     1
102
RTVSPost2010Prop50
 90
       50
102
RTVSPost2010PropOp50
 70
     1
102
RTVSPost2010Prop51ColorIndex
 90
      256
102
RTVSPost2010Prop51ColorRGB
 90
-16777216
102
RTVSPost2010PropOp51
 70
     0
102
RTVSPost2010Prop52
140
1.0
102
RTVSPost2010PropOp52
 70
     0
102
RTVSPost2010Prop53
 90
        2
102
RTVSPost2010PropOp53
 70
     1
102
RTVSPost2010Prop54
  1
strokes_ogs.tif
102
RTVSPost2010PropOp54
 70
     1
102
RTVSPost2010Prop55
280
     0
102
RTVSPost2010PropOp55
 70
     1
102
RTVSPost2010Prop56
140
1.0
102
RTVSPost2010PropOp56
 70
     1
102
RTVSPost2010Prop57
140
1.0
102
RTVSPost2010PropOp57
 70
     1
  0
XRECORD
  5
402
102
{ACAD_REACTORS
330
401
102
}
330
401
100
AcDbXrecord
280
     1
102
RTVSPost2010Prop28
280
     0
102
RTVSPost2010PropOp28
 70
     1
102
RTVSPost2010Prop29
280
     1
102
RTVSPost2010PropOp29
 70
     1
102
RTVSPost2010Prop30
280
     1
102
RTVSPost2010PropOp30
 70
     1
102
RTVSPost2010Prop31
280
     0
102
RTVSPost2010PropOp31
 70
     1
102
RTVSPost2010Prop32
280
     0
102
RTVSPost2010PropOp32
 70
     1
102
RTVSPost2010Prop33
280
     0
102
RTVSPost2010PropOp33
 70
     1
102
RTVSPost2010Prop34
280
     0
102
RTVSPost2010PropOp34
 70
     1
102
RTVSPost2010Prop35
280
     0
102
RTVSPost2010PropOp35
 70
     1
102
RTVSPost2010Prop36
280
     0
102
RTVSPost2010PropOp36
 70
     1
102
RTVSPost2010Prop37
 90
       50
102
RTVSPost2010PropOp37
 70
     1
102
RTVSPost2010Prop38
140
0.0
102
RTVSPost2010PropOp38
 70
     1
102
RTVSPost2010Prop39
140
1.0
102
RTVSPost2010PropOp39
 70
     1
102
RTVSPost2010Prop40
 90
        0
102
RTVSPost2010PropOp40
 70
     1
102
RTVSPost2010Prop41ColorIndex
 90
       18
102
RTVSPost2010Prop41ColorRGB
 90
        0
102
RTVSPost2010PropOp41
 70
     1
102
RTVSPost2010Prop42
 90
       50
102
RTVSPost2010PropOp42
 70
     1
102
RTVSPost2010Prop43
 90
        3
102
RTVSPost2010PropOp43
 70
     1
102
RTVSPost2010Prop44ColorIndex
 90
        5
102
RTVSPost2010Prop44ColorRGB
 90
      255
102
RTVSPost2010PropOp44
 70
     1
102
RTVSPost2010Prop45
280
     0
102
RTVSPost2010PropOp45
 70
     1
102
RTVSPost2010Prop46
 90
       50
102
RTVSPost2010PropOp46
 70
     1
102
RTVSPost2010Prop47
 90
       50
102
RTVSPost2010PropOp47
 70
     1
102
RTVSPost2010Prop48
 90
       50
102
RTVSPost2010PropOp48
 70
     1
102
RTVSPost2010Prop49
280
     0
102
RTVSPost2010PropOp49
 70
     1
102
RTVSPost2010Prop50
 90
       50
102
RTVSPost2010PropOp50
 70
     1
102
RTVSPost2010Prop51ColorIndex
 90
      256
102
RTVSPost2010Prop51ColorRGB
 90
-16777216
102
RTVSPost2010PropOp51
 70
     0
102
RTVSPost2010Prop52
140
1.0
102
RTVSPost2010PropOp52
 70
     0
102
RTVSPost2010Prop53
 90
        2
102
RTVSPost2010PropOp53
 70
     1
102
RTVSPost2010Prop54
  1
strokes_ogs.tif
102
RTVSPost2010PropOp54
 70
     1
102
RTVSPost2010Prop55
280
     0
102
RTVSPost2010PropOp55
 70
     1
102
RTVSPost2010Prop56
140
1.0
102
RTVSPost2010PropOp56
 70
     1
102
RTVSPost2010Prop57
140
1.0
102
RTVSPost2010PropOp57
 70
     1
  0
XRECORD
  5
41C
102
{ACAD_REACTORS
330
41B
102
}
330
41B
100
AcDbXrecord
280
     1
102
RTVSPost2010Prop28
280
     0
102
RTVSPost2010PropOp28
 70
     0
102
RTVSPost2010Prop29
280
     1
102
RTVSPost2010PropOp29
 70
     0
102
RTVSPost2010Prop30
280
     1
102
RTVSPost2010PropOp30
 70
     0
102
RTVSPost2010Prop31
280
     0
102
RTVSPost2010PropOp31
 70
     0
102
RTVSPost2010Prop32
280
     0
102
RTVSPost2010PropOp32
 70
     0
102
RTVSPost2010Prop33
280
     0
102
RTVSPost2010PropOp33
 70
     0
102
RTVSPost2010Prop34
280
     0
102
RTVSPost2010PropOp34
 70
     0
102
RTVSPost2010Prop35
280
     0
102
RTVSPost2010PropOp35
 70
     0
102
RTVSPost2010Prop36
280
     0
102
RTVSPost2010PropOp36
 70
     0
102
RTVSPost2010Prop37
 90
       50
102
RTVSPost2010PropOp37
 70
     0
102
RTVSPost2010Prop38
140
0.0
102
RTVSPost2010PropOp38
 70
     0
102
RTVSPost2010Prop39
140
1.0
102
RTVSPost2010PropOp39
 70
     0
102
RTVSPost2010Prop40
 90
        0
102
RTVSPost2010PropOp40
 70
     0
102
RTVSPost2010Prop41ColorIndex
 90
       18
102
RTVSPost2010Prop41ColorRGB
 90
        0
102
RTVSPost2010PropOp41
 70
     0
102
RTVSPost2010Prop42
 90
       50
102
RTVSPost2010PropOp42
 70
     0
102
RTVSPost2010Prop43
 90
        3
102
RTVSPost2010PropOp43
 70
     0
102
RTVSPost2010Prop44ColorIndex
 90
        5
102
RTVSPost2010Prop44ColorRGB
 90
      255
102
RTVSPost2010PropOp44
 70
     0
102
RTVSPost2010Prop45
280
     0
102
RTVSPost2010PropOp45
 70
     0
102
RTVSPost2010Prop46
 90
       50
102
RTVSPost2010PropOp46
 70
     0
102
RTVSPost2010Prop47
 90
       50
102
RTVSPost2010PropOp47
 70
     0
102
RTVSPost2010Prop48
 90
       50
102
RTVSPost2010PropOp48
 70
     0
102
RTVSPost2010Prop49
280
     0
102
RTVSPost2010PropOp49
 70
     0
102
RTVSPost2010Prop50
 90
       50
102
RTVSPost2010PropOp50
 70
     0
102
RTVSPost2010Prop51ColorIndex
 90
      256
102
RTVSPost2010Prop51ColorRGB
 90
-16777216
102
RTVSPost2010PropOp51
 70
     0
102
RTVSPost2010Prop52
140
1.0
102
RTVSPost2010PropOp52
 70
     0
102
RTVSPost2010Prop53
 90
        2
102
RTVSPost2010PropOp53
 70
     0
102
RTVSPost2010Prop54
  1
strokes_ogs.tif
102
RTVSPost2010PropOp54
 70
     0
102
RTVSPost2010Prop55
280
     0
102
RTVSPost2010PropOp55
 70
     0
102
RTVSPost2010Prop56
140
1.0
102
RTVSPost2010PropOp56
 70
     0
102
RTVSPost2010Prop57
140
1.0
102
RTVSPost2010PropOp57
 70
     0
  0
XRECORD
  5
40A
102
{ACAD_REACTORS
330
409
102
}
330
409
100
AcDbXrecord
280
     1
102
RTVSPost2010Prop28
280
     0
102
RTVSPost2010PropOp28
 70
     1
102
RTVSPost2010Prop29
280
     1
102
RTVSPost2010PropOp29
 70
     1
102
RTVSPost2010Prop30
280
     1
102
RTVSPost2010PropOp30
 70
     1
102
RTVSPost2010Prop31
280
     0
102
RTVSPost2010PropOp31
 70
     1
102
RTVSPost2010Prop32
280
     0
102
RTVSPost2010PropOp32
 70
     1
102
RTVSPost2010Prop33
280
     0
102
RTVSPost2010PropOp33
 70
     1
102
RTVSPost2010Prop34
280
     0
102
RTVSPost2010PropOp34
 70
     1
102
RTVSPost2010Prop35
280
     0
102
RTVSPost2010PropOp35
 70
     1
102
RTVSPost2010Prop36
280
     0
102
RTVSPost2010PropOp36
 70
     1
102
RTVSPost2010Prop37
 90
       50
102
RTVSPost2010PropOp37
 70
     1
102
RTVSPost2010Prop38
140
0.0
102
RTVSPost2010PropOp38
 70
     1
102
RTVSPost2010Prop39
140
1.0
102
RTVSPost2010PropOp39
 70
     1
102
RTVSPost2010Prop40
 90
        0
102
RTVSPost2010PropOp40
 70
     1
102
RTVSPost2010Prop41ColorIndex
 90
       18
102
RTVSPost2010Prop41ColorRGB
 90
        0
102
RTVSPost2010PropOp41
 70
     1
102
RTVSPost2010Prop42
 90
       50
102
RTVSPost2010PropOp42
 70
     1
102
RTVSPost2010Prop43
 90
        3
102
RTVSPost2010PropOp43
 70
     1
102
RTVSPost2010Prop44ColorIndex
 90
        5
102
RTVSPost2010Prop44ColorRGB
 90
      255
102
RTVSPost2010PropOp44
 70
     1
102
RTVSPost2010Prop45
280
     0
102
RTVSPost2010PropOp45
 70
     1
102
RTVSPost2010Prop46
 90
       50
102
RTVSPost2010PropOp46
 70
     1
102
RTVSPost2010Prop47
 90
       50
102
RTVSPost2010PropOp47
 70
     1
102
RTVSPost2010Prop48
 90
       50
102
RTVSPost2010PropOp48
 70
     1
102
RTVSPost2010Prop49
280
     0
102
RTVSPost2010PropOp49
 70
     1
102
RTVSPost2010Prop50
 90
       50
102
RTVSPost2010PropOp50
 70
     1
102
RTVSPost2010Prop51ColorIndex
 90
      256
102
RTVSPost2010Prop51ColorRGB
 90
-16777216
102
RTVSPost2010PropOp51
 70
     0
102
RTVSPost2010Prop52
140
1.0
102
RTVSPost2010PropOp52
 70
     0
102
RTVSPost2010Prop53
 90
        2
102
RTVSPost2010PropOp53
 70
     1
102
RTVSPost2010Prop54
  1
strokes_ogs.tif
102
RTVSPost2010PropOp54
 70
     1
102
RTVSPost2010Prop55
280
     0
102
RTVSPost2010PropOp55
 70
     1
102
RTVSPost2010Prop56
140
1.0
102
RTVSPost2010PropOp56
 70
     1
102
RTVSPost2010Prop57
140
1.0
102
RTVSPost2010PropOp57
 70
     1
  0
XRECORD
  5
3EE
102
{ACAD_REACTORS
330
3ED
102
}
330
3ED
100
AcDbXrecord
280
     1
102
RTVSPost2010Prop28
280
     0
102
RTVSPost2010PropOp28
 70
     1
102
RTVSPost2010Prop29
280
     1
102
RTVSPost2010PropOp29
 70
     1
102
RTVSPost2010Prop30
280
     1
102
RTVSPost2010PropOp30
 70
     1
102
RTVSPost2010Prop31
280
     0
102
RTVSPost2010PropOp31
 70
     1
102
RTVSPost2010Prop32
280
     0
102
RTVSPost2010PropOp32
 70
     1
102
RTVSPost2010Prop33
280
     0
102
RTVSPost2010PropOp33
 70
     1
102
RTVSPost2010Prop34
280
     0
102
RTVSPost2010PropOp34
 70
     1
102
RTVSPost2010Prop35
280
     0
102
RTVSPost2010PropOp35
 70
     1
102
RTVSPost2010Prop36
280
     0
102
RTVSPost2010PropOp36
 70
     1
102
RTVSPost2010Prop37
 90
       50
102
RTVSPost2010PropOp37
 70
     1
102
RTVSPost2010Prop38
140
0.0
102
RTVSPost2010PropOp38
 70
     1
102
RTVSPost2010Prop39
140
1.0
102
RTVSPost2010PropOp39
 70
     1
102
RTVSPost2010Prop40
 90
        0
102
RTVSPost2010PropOp40
 70
     1
102
RTVSPost2010Prop41ColorIndex
 90
       18
102
RTVSPost2010Prop41ColorRGB
 90
        0
102
RTVSPost2010PropOp41
 70
     1
102
RTVSPost2010Prop42
 90
       50
102
RTVSPost2010PropOp42
 70
     1
102
RTVSPost2010Prop43
 90
        3
102
RTVSPost2010PropOp43
 70
     1
102
RTVSPost2010Prop44ColorIndex
 90
        5
102
RTVSPost2010Prop44ColorRGB
 90
      255
102
RTVSPost2010PropOp44
 70
     1
102
RTVSPost2010Prop45
280
     0
102
RTVSPost2010PropOp45
 70
     1
102
RTVSPost2010Prop46
 90
       50
102
RTVSPost2010PropOp46
 70
     1
102
RTVSPost2010Prop47
 90
       50
102
RTVSPost2010PropOp47
 70
     1
102
RTVSPost2010Prop48
 90
       50
102
RTVSPost2010PropOp48
 70
     1
102
RTVSPost2010Prop49
280
     0
102
RTVSPost2010PropOp49
 70
     1
102
RTVSPost2010Prop50
 90
       50
102
RTVSPost2010PropOp50
 70
     1
102
RTVSPost2010Prop51ColorIndex
 90
      256
102
RTVSPost2010Prop51ColorRGB
 90
-16777216
102
RTVSPost2010PropOp51
 70
     0
102
RTVSPost2010Prop52
140
1.0
102
RTVSPost2010PropOp52
 70
     0
102
RTVSPost2010Prop53
 90
        2
102
RTVSPost2010PropOp53
 70
     1
102
RTVSPost2010Prop54
  1
strokes_ogs.tif
102
RTVSPost2010PropOp54
 70
     1
102
RTVSPost2010Prop55
280
     0
102
RTVSPost2010PropOp55
 70
     1
102
RTVSPost2010Prop56
140
1.0
102
RTVSPost2010PropOp56
 70
     1
102
RTVSPost2010Prop57
140
1.0
102
RTVSPost2010PropOp57
 70
     1
  0
XRECORD
  5
3F0
102
{ACAD_REACTORS
330
3EF
102
}
330
3EF
100
AcDbXrecord
280
     1
102
RTVSPost2010Prop28
280
     0
102
RTVSPost2010PropOp28
 70
     1
102
RTVSPost2010Prop29
280
     1
102
RTVSPost2010PropOp29
 70
     1
102
RTVSPost2010Prop30
280
     1
102
RTVSPost2010PropOp30
 70
     1
102
RTVSPost2010Prop31
280
     0
102
RTVSPost2010PropOp31
 70
     1
102
RTVSPost2010Prop32
280
     0
102
RTVSPost2010PropOp32
 70
     1
102
RTVSPost2010Prop33
280
     0
102
RTVSPost2010PropOp33
 70
     1
102
RTVSPost2010Prop34
280
     0
102
RTVSPost2010PropOp34
 70
     1
102
RTVSPost2010Prop35
280
     0
102
RTVSPost2010PropOp35
 70
     1
102
RTVSPost2010Prop36
280
     0
102
RTVSPost2010PropOp36
 70
     1
102
RTVSPost2010Prop37
 90
       50
102
RTVSPost2010PropOp37
 70
     1
102
RTVSPost2010Prop38
140
0.0
102
RTVSPost2010PropOp38
 70
     1
102
RTVSPost2010Prop39
140
1.0
102
RTVSPost2010PropOp39
 70
     1
102
RTVSPost2010Prop40
 90
        0
102
RTVSPost2010PropOp40
 70
     1
102
RTVSPost2010Prop41ColorIndex
 90
       18
102
RTVSPost2010Prop41ColorRGB
 90
        0
102
RTVSPost2010PropOp41
 70
     1
102
RTVSPost2010Prop42
 90
       50
102
RTVSPost2010PropOp42
 70
     1
102
RTVSPost2010Prop43
 90
        3
102
RTVSPost2010PropOp43
 70
     1
102
RTVSPost2010Prop44ColorIndex
 90
        5
102
RTVSPost2010Prop44ColorRGB
 90
      255
102
RTVSPost2010PropOp44
 70
     1
102
RTVSPost2010Prop45
280
     0
102
RTVSPost2010PropOp45
 70
     1
102
RTVSPost2010Prop46
 90
       50
102
RTVSPost2010PropOp46
 70
     1
102
RTVSPost2010Prop47
 90
       50
102
RTVSPost2010PropOp47
 70
     1
102
RTVSPost2010Prop48
 90
       50
102
RTVSPost2010PropOp48
 70
     1
102
RTVSPost2010Prop49
280
     0
102
RTVSPost2010PropOp49
 70
     1
102
RTVSPost2010Prop50
 90
       50
102
RTVSPost2010PropOp50
 70
     1
102
RTVSPost2010Prop51ColorIndex
 90
      256
102
RTVSPost2010Prop51ColorRGB
 90
-16777216
102
RTVSPost2010PropOp51
 70
     0
102
RTVSPost2010Prop52
140
1.0
102
RTVSPost2010PropOp52
 70
     0
102
RTVSPost2010Prop53
 90
        2
102
RTVSPost2010PropOp53
 70
     1
102
RTVSPost2010Prop54
  1
strokes_ogs.tif
102
RTVSPost2010PropOp54
 70
     1
102
RTVSPost2010Prop55
280
     0
102
RTVSPost2010PropOp55
 70
     1
102
RTVSPost2010Prop56
140
1.0
102
RTVSPost2010PropOp56
 70
     1
102
RTVSPost2010Prop57
140
1.0
102
RTVSPost2010PropOp57
 70
     1
  0
XRECORD
  5
3F2
102
{ACAD_REACTORS
330
3F1
102
}
330
3F1
100
AcDbXrecord
280
     1
102
RTVSPost2010Prop28
280
     0
102
RTVSPost2010PropOp28
 70
     1
102
RTVSPost2010Prop29
280
     1
102
RTVSPost2010PropOp29
 70
     1
102
RTVSPost2010Prop30
280
     1
102
RTVSPost2010PropOp30
 70
     1
102
RTVSPost2010Prop31
280
     0
102
RTVSPost2010PropOp31
 70
     1
102
RTVSPost2010Prop32
280
     0
102
RTVSPost2010PropOp32
 70
     1
102
RTVSPost2010Prop33
280
     0
102
RTVSPost2010PropOp33
 70
     1
102
RTVSPost2010Prop34
280
     0
102
RTVSPost2010PropOp34
 70
     1
102
RTVSPost2010Prop35
280
     0
102
RTVSPost2010PropOp35
 70
     1
102
RTVSPost2010Prop36
280
     0
102
RTVSPost2010PropOp36
 70
     1
102
RTVSPost2010Prop37
 90
       50
102
RTVSPost2010PropOp37
 70
     1
102
RTVSPost2010Prop38
140
0.0
102
RTVSPost2010PropOp38
 70
     1
102
RTVSPost2010Prop39
140
1.0
102
RTVSPost2010PropOp39
 70
     1
102
RTVSPost2010Prop40
 90
        0
102
RTVSPost2010PropOp40
 70
     1
102
RTVSPost2010Prop41ColorIndex
 90
       18
102
RTVSPost2010Prop41ColorRGB
 90
        0
102
RTVSPost2010PropOp41
 70
     1
102
RTVSPost2010Prop42
 90
       50
102
RTVSPost2010PropOp42
 70
     1
102
RTVSPost2010Prop43
 90
        3
102
RTVSPost2010PropOp43
 70
     1
102
RTVSPost2010Prop44ColorIndex
 90
        5
102
RTVSPost2010Prop44ColorRGB
 90
      255
102
RTVSPost2010PropOp44
 70
     1
102
RTVSPost2010Prop45
280
     0
102
RTVSPost2010PropOp45
 70
     1
102
RTVSPost2010Prop46
 90
       50
102
RTVSPost2010PropOp46
 70
     1
102
RTVSPost2010Prop47
 90
       50
102
RTVSPost2010PropOp47
 70
     1
102
RTVSPost2010Prop48
 90
       50
102
RTVSPost2010PropOp48
 70
     1
102
RTVSPost2010Prop49
280
     0
102
RTVSPost2010PropOp49
 70
     1
102
RTVSPost2010Prop50
 90
       50
102
RTVSPost2010PropOp50
 70
     1
102
RTVSPost2010Prop51ColorIndex
 90
      256
102
RTVSPost2010Prop51ColorRGB
 90
-16777216
102
RTVSPost2010PropOp51
 70
     0
102
RTVSPost2010Prop52
140
1.0
102
RTVSPost2010PropOp52
 70
     0
102
RTVSPost2010Prop53
 90
        2
102
RTVSPost2010PropOp53
 70
     1
102
RTVSPost2010Prop54
  1
strokes_ogs.tif
102
RTVSPost2010PropOp54
 70
     1
102
RTVSPost2010Prop55
280
     0
102
RTVSPost2010PropOp55
 70
     1
102
RTVSPost2010Prop56
140
1.0
102
RTVSPost2010PropOp56
 70
     1
102
RTVSPost2010Prop57
140
1.0
102
RTVSPost2010PropOp57
 70
     1
  0
XRECORD
  5
3F4
102
{ACAD_REACTORS
330
3F3
102
}
330
3F3
100
AcDbXrecord
280
     1
102
RTVSPost2010Prop28
280
     0
102
RTVSPost2010PropOp28
 70
     1
102
RTVSPost2010Prop29
280
     1
102
RTVSPost2010PropOp29
 70
     1
102
RTVSPost2010Prop30
280
     1
102
RTVSPost2010PropOp30
 70
     1
102
RTVSPost2010Prop31
280
     0
102
RTVSPost2010PropOp31
 70
     1
102
RTVSPost2010Prop32
280
     0
102
RTVSPost2010PropOp32
 70
     1
102
RTVSPost2010Prop33
280
     0
102
RTVSPost2010PropOp33
 70
     1
102
RTVSPost2010Prop34
280
     0
102
RTVSPost2010PropOp34
 70
     1
102
RTVSPost2010Prop35
280
     0
102
RTVSPost2010PropOp35
 70
     1
102
RTVSPost2010Prop36
280
     0
102
RTVSPost2010PropOp36
 70
     1
102
RTVSPost2010Prop37
 90
       50
102
RTVSPost2010PropOp37
 70
     1
102
RTVSPost2010Prop38
140
0.0
102
RTVSPost2010PropOp38
 70
     1
102
RTVSPost2010Prop39
140
1.0
102
RTVSPost2010PropOp39
 70
     1
102
RTVSPost2010Prop40
 90
        0
102
RTVSPost2010PropOp40
 70
     1
102
RTVSPost2010Prop41ColorIndex
 90
       18
102
RTVSPost2010Prop41ColorRGB
 90
        0
102
RTVSPost2010PropOp41
 70
     1
102
RTVSPost2010Prop42
 90
       50
102
RTVSPost2010PropOp42
 70
     1
102
RTVSPost2010Prop43
 90
        3
102
RTVSPost2010PropOp43
 70
     1
102
RTVSPost2010Prop44ColorIndex
 90
        5
102
RTVSPost2010Prop44ColorRGB
 90
      255
102
RTVSPost2010PropOp44
 70
     1
102
RTVSPost2010Prop45
280
     0
102
RTVSPost2010PropOp45
 70
     1
102
RTVSPost2010Prop46
 90
       50
102
RTVSPost2010PropOp46
 70
     1
102
RTVSPost2010Prop47
 90
       50
102
RTVSPost2010PropOp47
 70
     1
102
RTVSPost2010Prop48
 90
       50
102
RTVSPost2010PropOp48
 70
     1
102
RTVSPost2010Prop49
280
     0
102
RTVSPost2010PropOp49
 70
     1
102
RTVSPost2010Prop50
 90
       50
102
RTVSPost2010PropOp50
 70
     1
102
RTVSPost2010Prop51ColorIndex
 90
      256
102
RTVSPost2010Prop51ColorRGB
 90
-16777216
102
RTVSPost2010PropOp51
 70
     0
102
RTVSPost2010Prop52
140
1.0
102
RTVSPost2010PropOp52
 70
     0
102
RTVSPost2010Prop53
 90
        2
102
RTVSPost2010PropOp53
 70
     1
102
RTVSPost2010Prop54
  1
strokes_ogs.tif
102
RTVSPost2010PropOp54
 70
     1
102
RTVSPost2010Prop55
280
     0
102
RTVSPost2010PropOp55
 70
     1
102
RTVSPost2010Prop56
140
1.0
102
RTVSPost2010PropOp56
 70
     1
102
RTVSPost2010Prop57
140
1.0
102
RTVSPost2010PropOp57
 70
     1
  0
XRECORD
  5
3FC
102
{ACAD_REACTORS
330
3FB
102
}
330
3FB
100
AcDbXrecord
280
     1
102
RTVSPost2010Prop28
280
     0
102
RTVSPost2010PropOp28
 70
     1
102
RTVSPost2010Prop29
280
     1
102
RTVSPost2010PropOp29
 70
     1
102
RTVSPost2010Prop30
280
     1
102
RTVSPost2010PropOp30
 70
     1
102
RTVSPost2010Prop31
280
     0
102
RTVSPost2010PropOp31
 70
     1
102
RTVSPost2010Prop32
280
     0
102
RTVSPost2010PropOp32
 70
     1
102
RTVSPost2010Prop33
280
     0
102
RTVSPost2010PropOp33
 70
     1
102
RTVSPost2010Prop34
280
     0
102
RTVSPost2010PropOp34
 70
     1
102
RTVSPost2010Prop35
280
     0
102
RTVSPost2010PropOp35
 70
     1
102
RTVSPost2010Prop36
280
     0
102
RTVSPost2010PropOp36
 70
     1
102
RTVSPost2010Prop37
 90
       50
102
RTVSPost2010PropOp37
 70
     1
102
RTVSPost2010Prop38
140
0.0
102
RTVSPost2010PropOp38
 70
     1
102
RTVSPost2010Prop39
140
1.0
102
RTVSPost2010PropOp39
 70
     1
102
RTVSPost2010Prop40
 90
        0
102
RTVSPost2010PropOp40
 70
     1
102
RTVSPost2010Prop41ColorIndex
 90
       18
102
RTVSPost2010Prop41ColorRGB
 90
        0
102
RTVSPost2010PropOp41
 70
     1
102
RTVSPost2010Prop42
 90
       50
102
RTVSPost2010PropOp42
 70
     1
102
RTVSPost2010Prop43
 90
        3
102
RTVSPost2010PropOp43
 70
     1
102
RTVSPost2010Prop44ColorIndex
 90
        5
102
RTVSPost2010Prop44ColorRGB
 90
      255
102
RTVSPost2010PropOp44
 70
     1
102
RTVSPost2010Prop45
280
     0
102
RTVSPost2010PropOp45
 70
     1
102
RTVSPost2010Prop46
 90
       50
102
RTVSPost2010PropOp46
 70
     1
102
RTVSPost2010Prop47
 90
       50
102
RTVSPost2010PropOp47
 70
     1
102
RTVSPost2010Prop48
 90
       50
102
RTVSPost2010PropOp48
 70
     1
102
RTVSPost2010Prop49
280
     0
102
RTVSPost2010PropOp49
 70
     1
102
RTVSPost2010Prop50
 90
       50
102
RTVSPost2010PropOp50
 70
     1
102
RTVSPost2010Prop51ColorIndex
 90
      256
102
RTVSPost2010Prop51ColorRGB
 90
-16777216
102
RTVSPost2010PropOp51
 70
     0
102
RTVSPost2010Prop52
140
1.0
102
RTVSPost2010PropOp52
 70
     0
102
RTVSPost2010Prop53
 90
        2
102
RTVSPost2010PropOp53
 70
     1
102
RTVSPost2010Prop54
  1
strokes_ogs.tif
102
RTVSPost2010PropOp54
 70
     1
102
RTVSPost2010Prop55
280
     0
102
RTVSPost2010PropOp55
 70
     1
102
RTVSPost2010Prop56
140
1.0
102
RTVSPost2010PropOp56
 70
     1
102
RTVSPost2010Prop57
140
1.0
102
RTVSPost2010PropOp57
 70
     1
  0
XRECORD
  5
418
102
{ACAD_REACTORS
330
417
102
}
330
417
100
AcDbXrecord
280
     1
102
RTVSPost2010Prop28
280
     0
102
RTVSPost2010PropOp28
 70
     0
102
RTVSPost2010Prop29
280
     1
102
RTVSPost2010PropOp29
 70
     0
102
RTVSPost2010Prop30
280
     1
102
RTVSPost2010PropOp30
 70
     0
102
RTVSPost2010Prop31
280
     0
102
RTVSPost2010PropOp31
 70
     0
102
RTVSPost2010Prop32
280
     0
102
RTVSPost2010PropOp32
 70
     0
102
RTVSPost2010Prop33
280
     0
102
RTVSPost2010PropOp33
 70
     0
102
RTVSPost2010Prop34
280
     0
102
RTVSPost2010PropOp34
 70
     0
102
RTVSPost2010Prop35
280
     0
102
RTVSPost2010PropOp35
 70
     0
102
RTVSPost2010Prop36
280
     0
102
RTVSPost2010PropOp36
 70
     0
102
RTVSPost2010Prop37
 90
       50
102
RTVSPost2010PropOp37
 70
     0
102
RTVSPost2010Prop38
140
0.0
102
RTVSPost2010PropOp38
 70
     0
102
RTVSPost2010Prop39
140
1.0
102
RTVSPost2010PropOp39
 70
     0
102
RTVSPost2010Prop40
 90
        0
102
RTVSPost2010PropOp40
 70
     0
102
RTVSPost2010Prop41ColorIndex
 90
       18
102
RTVSPost2010Prop41ColorRGB
 90
        0
102
RTVSPost2010PropOp41
 70
     0
102
RTVSPost2010Prop42
 90
       50
102
RTVSPost2010PropOp42
 70
     0
102
RTVSPost2010Prop43
 90
        3
102
RTVSPost2010PropOp43
 70
     0
102
RTVSPost2010Prop44ColorIndex
 90
        5
102
RTVSPost2010Prop44ColorRGB
 90
      255
102
RTVSPost2010PropOp44
 70
     0
102
RTVSPost2010Prop45
280
     0
102
RTVSPost2010PropOp45
 70
     0
102
RTVSPost2010Prop46
 90
       50
102
RTVSPost2010PropOp46
 70
     0
102
RTVSPost2010Prop47
 90
       50
102
RTVSPost2010PropOp47
 70
     0
102
RTVSPost2010Prop48
 90
       50
102
RTVSPost2010PropOp48
 70
     0
102
RTVSPost2010Prop49
280
     0
102
RTVSPost2010PropOp49
 70
     0
102
RTVSPost2010Prop50
 90
       50
102
RTVSPost2010PropOp50
 70
     0
102
RTVSPost2010Prop51ColorIndex
 90
      256
102
RTVSPost2010Prop51ColorRGB
 90
-16777216
102
RTVSPost2010PropOp51
 70
     0
102
RTVSPost2010Prop52
140
1.0
102
RTVSPost2010PropOp52
 70
     0
102
RTVSPost2010Prop53
 90
        2
102
RTVSPost2010PropOp53
 70
     0
102
RTVSPost2010Prop54
  1
strokes_ogs.tif
102
RTVSPost2010PropOp54
 70
     0
102
RTVSPost2010Prop55
280
     0
102
RTVSPost2010PropOp55
 70
     0
102
RTVSPost2010Prop56
140
1.0
102
RTVSPost2010PropOp56
 70
     0
102
RTVSPost2010Prop57
140
1.0
102
RTVSPost2010PropOp57
 70
     0
  0
XRECORD
  5
408
102
{ACAD_REACTORS
330
407
102
}
330
407
100
AcDbXrecord
280
     1
102
RTVSPost2010Prop28
280
     0
102
RTVSPost2010PropOp28
 70
     1
102
RTVSPost2010Prop29
280
     1
102
RTVSPost2010PropOp29
 70
     1
102
RTVSPost2010Prop30
280
     1
102
RTVSPost2010PropOp30
 70
     1
102
RTVSPost2010Prop31
280
     0
102
RTVSPost2010PropOp31
 70
     1
102
RTVSPost2010Prop32
280
     0
102
RTVSPost2010PropOp32
 70
     1
102
RTVSPost2010Prop33
280
     0
102
RTVSPost2010PropOp33
 70
     1
102
RTVSPost2010Prop34
280
     0
102
RTVSPost2010PropOp34
 70
     1
102
RTVSPost2010Prop35
280
     0
102
RTVSPost2010PropOp35
 70
     1
102
RTVSPost2010Prop36
280
     0
102
RTVSPost2010PropOp36
 70
     1
102
RTVSPost2010Prop37
 90
       50
102
RTVSPost2010PropOp37
 70
     1
102
RTVSPost2010Prop38
140
0.0
102
RTVSPost2010PropOp38
 70
     1
102
RTVSPost2010Prop39
140
1.0
102
RTVSPost2010PropOp39
 70
     1
102
RTVSPost2010Prop40
 90
        0
102
RTVSPost2010PropOp40
 70
     1
102
RTVSPost2010Prop41ColorIndex
 90
       18
102
RTVSPost2010Prop41ColorRGB
 90
        0
102
RTVSPost2010PropOp41
 70
     1
102
RTVSPost2010Prop42
 90
       50
102
RTVSPost2010PropOp42
 70
     1
102
RTVSPost2010Prop43
 90
        3
102
RTVSPost2010PropOp43
 70
     1
102
RTVSPost2010Prop44ColorIndex
 90
        5
102
RTVSPost2010Prop44ColorRGB
 90
      255
102
RTVSPost2010PropOp44
 70
     1
102
RTVSPost2010Prop45
280
     0
102
RTVSPost2010PropOp45
 70
     1
102
RTVSPost2010Prop46
 90
       50
102
RTVSPost2010PropOp46
 70
     1
102
RTVSPost2010Prop47
 90
       50
102
RTVSPost2010PropOp47
 70
     1
102
RTVSPost2010Prop48
 90
       50
102
RTVSPost2010PropOp48
 70
     1
102
RTVSPost2010Prop49
280
     0
102
RTVSPost2010PropOp49
 70
     1
102
RTVSPost2010Prop50
 90
       50
102
RTVSPost2010PropOp50
 70
     1
102
RTVSPost2010Prop51ColorIndex
 90
      256
102
RTVSPost2010Prop51ColorRGB
 90
-16777216
102
RTVSPost2010PropOp51
 70
     0
102
RTVSPost2010Prop52
140
1.0
102
RTVSPost2010PropOp52
 70
     0
102
RTVSPost2010Prop53
 90
        2
102
RTVSPost2010PropOp53
 70
     1
102
RTVSPost2010Prop54
  1
strokes_ogs.tif
102
RTVSPost2010PropOp54
 70
     1
102
RTVSPost2010Prop55
280
     0
102
RTVSPost2010PropOp55
 70
     1
102
RTVSPost2010Prop56
140
1.0
102
RTVSPost2010PropOp56
 70
     1
102
RTVSPost2010Prop57
140
1.0
102
RTVSPost2010PropOp57
 70
     1
  0
XRECORD
  5
41A
102
{ACAD_REACTORS
330
419
102
}
330
419
100
AcDbXrecord
280
     1
102
RTVSPost2010Prop28
280
     0
102
RTVSPost2010PropOp28
 70
     0
102
RTVSPost2010Prop29
280
     1
102
RTVSPost2010PropOp29
 70
     0
102
RTVSPost2010Prop30
280
     1
102
RTVSPost2010PropOp30
 70
     0
102
RTVSPost2010Prop31
280
     0
102
RTVSPost2010PropOp31
 70
     0
102
RTVSPost2010Prop32
280
     0
102
RTVSPost2010PropOp32
 70
     0
102
RTVSPost2010Prop33
280
     0
102
RTVSPost2010PropOp33
 70
     0
102
RTVSPost2010Prop34
280
     0
102
RTVSPost2010PropOp34
 70
     0
102
RTVSPost2010Prop35
280
     0
102
RTVSPost2010PropOp35
 70
     0
102
RTVSPost2010Prop36
280
     0
102
RTVSPost2010PropOp36
 70
     0
102
RTVSPost2010Prop37
 90
       50
102
RTVSPost2010PropOp37
 70
     0
102
RTVSPost2010Prop38
140
0.0
102
RTVSPost2010PropOp38
 70
     0
102
RTVSPost2010Prop39
140
1.0
102
RTVSPost2010PropOp39
 70
     0
102
RTVSPost2010Prop40
 90
        0
102
RTVSPost2010PropOp40
 70
     0
102
RTVSPost2010Prop41ColorIndex
 90
       18
102
RTVSPost2010Prop41ColorRGB
 90
        0
102
RTVSPost2010PropOp41
 70
     0
102
RTVSPost2010Prop42
 90
       50
102
RTVSPost2010PropOp42
 70
     0
102
RTVSPost2010Prop43
 90
        3
102
RTVSPost2010PropOp43
 70
     0
102
RTVSPost2010Prop44ColorIndex
 90
        5
102
RTVSPost2010Prop44ColorRGB
 90
      255
102
RTVSPost2010PropOp44
 70
     0
102
RTVSPost2010Prop45
280
     0
102
RTVSPost2010PropOp45
 70
     0
102
RTVSPost2010Prop46
 90
       50
102
RTVSPost2010PropOp46
 70
     0
102
RTVSPost2010Prop47
 90
       50
102
RTVSPost2010PropOp47
 70
     0
102
RTVSPost2010Prop48
 90
       50
102
RTVSPost2010PropOp48
 70
     0
102
RTVSPost2010Prop49
280
     0
102
RTVSPost2010PropOp49
 70
     0
102
RTVSPost2010Prop50
 90
       50
102
RTVSPost2010PropOp50
 70
     0
102
RTVSPost2010Prop51ColorIndex
 90
      256
102
RTVSPost2010Prop51ColorRGB
 90
-16777216
102
RTVSPost2010PropOp51
 70
     0
102
RTVSPost2010Prop52
140
1.0
102
RTVSPost2010PropOp52
 70
     0
102
RTVSPost2010Prop53
 90
        2
102
RTVSPost2010PropOp53
 70
     0
102
RTVSPost2010Prop54
  1
strokes_ogs.tif
102
RTVSPost2010PropOp54
 70
     0
102
RTVSPost2010Prop55
280
     0
102
RTVSPost2010PropOp55
 70
     0
102
RTVSPost2010Prop56
140
1.0
102
RTVSPost2010PropOp56
 70
     0
102
RTVSPost2010Prop57
140
1.0
102
RTVSPost2010PropOp57
 70
     0
  0
XRECORD
  5
400
102
{ACAD_REACTORS
330
3FF
102
}
330
3FF
100
AcDbXrecord
280
     1
102
RTVSPost2010Prop28
280
     0
102
RTVSPost2010PropOp28
 70
     1
102
RTVSPost2010Prop29
280
     1
102
RTVSPost2010PropOp29
 70
     1
102
RTVSPost2010Prop30
280
     1
102
RTVSPost2010PropOp30
 70
     1
102
RTVSPost2010Prop31
280
     0
102
RTVSPost2010PropOp31
 70
     1
102
RTVSPost2010Prop32
280
     0
102
RTVSPost2010PropOp32
 70
     1
102
RTVSPost2010Prop33
280
     0
102
RTVSPost2010PropOp33
 70
     1
102
RTVSPost2010Prop34
280
     0
102
RTVSPost2010PropOp34
 70
     1
102
RTVSPost2010Prop35
280
     0
102
RTVSPost2010PropOp35
 70
     1
102
RTVSPost2010Prop36
280
     0
102
RTVSPost2010PropOp36
 70
     1
102
RTVSPost2010Prop37
 90
       50
102
RTVSPost2010PropOp37
 70
     1
102
RTVSPost2010Prop38
140
0.0
102
RTVSPost2010PropOp38
 70
     1
102
RTVSPost2010Prop39
140
1.0
102
RTVSPost2010PropOp39
 70
     1
102
RTVSPost2010Prop40
 90
        0
102
RTVSPost2010PropOp40
 70
     1
102
RTVSPost2010Prop41ColorIndex
 90
       18
102
RTVSPost2010Prop41ColorRGB
 90
        0
102
RTVSPost2010PropOp41
 70
     1
102
RTVSPost2010Prop42
 90
       50
102
RTVSPost2010PropOp42
 70
     1
102
RTVSPost2010Prop43
 90
        3
102
RTVSPost2010PropOp43
 70
     1
102
RTVSPost2010Prop44ColorIndex
 90
        5
102
RTVSPost2010Prop44ColorRGB
 90
      255
102
RTVSPost2010PropOp44
 70
     1
102
RTVSPost2010Prop45
280
     0
102
RTVSPost2010PropOp45
 70
     1
102
RTVSPost2010Prop46
 90
       50
102
RTVSPost2010PropOp46
 70
     1
102
RTVSPost2010Prop47
 90
       50
102
RTVSPost2010PropOp47
 70
     1
102
RTVSPost2010Prop48
 90
       50
102
RTVSPost2010PropOp48
 70
     1
102
RTVSPost2010Prop49
280
     0
102
RTVSPost2010PropOp49
 70
     1
102
RTVSPost2010Prop50
 90
       50
102
RTVSPost2010PropOp50
 70
     1
102
RTVSPost2010Prop51ColorIndex
 90
      256
102
RTVSPost2010Prop51ColorRGB
 90
-16777216
102
RTVSPost2010PropOp51
 70
     0
102
RTVSPost2010Prop52
140
1.0
102
RTVSPost2010PropOp52
 70
     0
102
RTVSPost2010Prop53
 90
        2
102
RTVSPost2010PropOp53
 70
     1
102
RTVSPost2010Prop54
  1
strokes_ogs.tif
102
RTVSPost2010PropOp54
 70
     1
102
RTVSPost2010Prop55
280
     0
102
RTVSPost2010PropOp55
 70
     1
102
RTVSPost2010Prop56
140
1.0
102
RTVSPost2010PropOp56
 70
     1
102
RTVSPost2010Prop57
140
1.0
102
RTVSPost2010PropOp57
 70
     1
  0
XRECORD
  5
416
102
{ACAD_REACTORS
330
415
102
}
330
415
100
AcDbXrecord
280
     1
102
RTVSPost2010Prop28
280
     0
102
RTVSPost2010PropOp28
 70
     1
102
RTVSPost2010Prop29
280
     1
102
RTVSPost2010PropOp29
 70
     1
102
RTVSPost2010Prop30
280
     1
102
RTVSPost2010PropOp30
 70
     1
102
RTVSPost2010Prop31
280
     0
102
RTVSPost2010PropOp31
 70
     1
102
RTVSPost2010Prop32
280
     0
102
RTVSPost2010PropOp32
 70
     1
102
RTVSPost2010Prop33
280
     0
102
RTVSPost2010PropOp33
 70
     1
102
RTVSPost2010Prop34
280
     0
102
RTVSPost2010PropOp34
 70
     1
102
RTVSPost2010Prop35
280
     0
102
RTVSPost2010PropOp35
 70
     1
102
RTVSPost2010Prop36
280
     0
102
RTVSPost2010PropOp36
 70
     1
102
RTVSPost2010Prop37
 90
       50
102
RTVSPost2010PropOp37
 70
     1
102
RTVSPost2010Prop38
140
0.0
102
RTVSPost2010PropOp38
 70
     1
102
RTVSPost2010Prop39
140
1.0
102
RTVSPost2010PropOp39
 70
     1
102
RTVSPost2010Prop40
 90
        0
102
RTVSPost2010PropOp40
 70
     1
102
RTVSPost2010Prop41ColorIndex
 90
       18
102
RTVSPost2010Prop41ColorRGB
 90
        0
102
RTVSPost2010PropOp41
 70
     1
102
RTVSPost2010Prop42
 90
       50
102
RTVSPost2010PropOp42
 70
     1
102
RTVSPost2010Prop43
 90
        3
102
RTVSPost2010PropOp43
 70
     1
102
RTVSPost2010Prop44ColorIndex
 90
        5
102
RTVSPost2010Prop44ColorRGB
 90
      255
102
RTVSPost2010PropOp44
 70
     1
102
RTVSPost2010Prop45
280
     0
102
RTVSPost2010PropOp45
 70
     1
102
RTVSPost2010Prop46
 90
       50
102
RTVSPost2010PropOp46
 70
     1
102
RTVSPost2010Prop47
 90
       50
102
RTVSPost2010PropOp47
 70
     1
102
RTVSPost2010Prop48
 90
       50
102
RTVSPost2010PropOp48
 70
     1
102
RTVSPost2010Prop49
280
     0
102
RTVSPost2010PropOp49
 70
     1
102
RTVSPost2010Prop50
 90
       50
102
RTVSPost2010PropOp50
 70
     1
102
RTVSPost2010Prop51ColorIndex
 90
      256
102
RTVSPost2010Prop51ColorRGB
 90
-16777216
102
RTVSPost2010PropOp51
 70
     0
102
RTVSPost2010Prop52
140
1.0
102
RTVSPost2010PropOp52
 70
     0
102
RTVSPost2010Prop53
 90
        2
102
RTVSPost2010PropOp53
 70
     1
102
RTVSPost2010Prop54
  1
strokes_ogs.tif
102
RTVSPost2010PropOp54
 70
     1
102
RTVSPost2010Prop55
280
     0
102
RTVSPost2010PropOp55
 70
     1
102
RTVSPost2010Prop56
140
1.0
102
RTVSPost2010PropOp56
 70
     1
102
RTVSPost2010Prop57
140
1.0
102
RTVSPost2010PropOp57
 70
     1
  0
XRECORD
  5
414
102
{ACAD_REACTORS
330
413
102
}
330
413
100
AcDbXrecord
280
     1
102
RTVSPost2010Prop28
280
     0
102
RTVSPost2010PropOp28
 70
     1
102
RTVSPost2010Prop29
280
     1
102
RTVSPost2010PropOp29
 70
     1
102
RTVSPost2010Prop30
280
     1
102
RTVSPost2010PropOp30
 70
     1
102
RTVSPost2010Prop31
280
     0
102
RTVSPost2010PropOp31
 70
     1
102
RTVSPost2010Prop32
280
     0
102
RTVSPost2010PropOp32
 70
     1
102
RTVSPost2010Prop33
280
     0
102
RTVSPost2010PropOp33
 70
     1
102
RTVSPost2010Prop34
280
     0
102
RTVSPost2010PropOp34
 70
     1
102
RTVSPost2010Prop35
280
     0
102
RTVSPost2010PropOp35
 70
     1
102
RTVSPost2010Prop36
280
     0
102
RTVSPost2010PropOp36
 70
     1
102
RTVSPost2010Prop37
 90
       50
102
RTVSPost2010PropOp37
 70
     1
102
RTVSPost2010Prop38
140
0.0
102
RTVSPost2010PropOp38
 70
     1
102
RTVSPost2010Prop39
140
1.0
102
RTVSPost2010PropOp39
 70
     1
102
RTVSPost2010Prop40
 90
        0
102
RTVSPost2010PropOp40
 70
     1
102
RTVSPost2010Prop41ColorIndex
 90
       18
102
RTVSPost2010Prop41ColorRGB
 90
        0
102
RTVSPost2010PropOp41
 70
     1
102
RTVSPost2010Prop42
 90
       50
102
RTVSPost2010PropOp42
 70
     1
102
RTVSPost2010Prop43
 90
        3
102
RTVSPost2010PropOp43
 70
     1
102
RTVSPost2010Prop44ColorIndex
 90
        5
102
RTVSPost2010Prop44ColorRGB
 90
      255
102
RTVSPost2010PropOp44
 70
     1
102
RTVSPost2010Prop45
280
     0
102
RTVSPost2010PropOp45
 70
     1
102
RTVSPost2010Prop46
 90
       50
102
RTVSPost2010PropOp46
 70
     1
102
RTVSPost2010Prop47
 90
       50
102
RTVSPost2010PropOp47
 70
     1
102
RTVSPost2010Prop48
 90
       50
102
RTVSPost2010PropOp48
 70
     1
102
RTVSPost2010Prop49
280
     0
102
RTVSPost2010PropOp49
 70
     1
102
RTVSPost2010Prop50
 90
       50
102
RTVSPost2010PropOp50
 70
     1
102
RTVSPost2010Prop51ColorIndex
 90
      256
102
RTVSPost2010Prop51ColorRGB
 90
-16777216
102
RTVSPost2010PropOp51
 70
     0
102
RTVSPost2010Prop52
140
1.0
102
RTVSPost2010PropOp52
 70
     0
102
RTVSPost2010Prop53
 90
        2
102
RTVSPost2010PropOp53
 70
     1
102
RTVSPost2010Prop54
  1
strokes_ogs.tif
102
RTVSPost2010PropOp54
 70
     1
102
RTVSPost2010Prop55
280
     0
102
RTVSPost2010PropOp55
 70
     1
102
RTVSPost2010Prop56
140
1.0
102
RTVSPost2010PropOp56
 70
     1
102
RTVSPost2010Prop57
140
1.0
102
RTVSPost2010PropOp57
 70
     1
  0
XRECORD
  5
40E
102
{ACAD_REACTORS
330
40D
102
}
330
40D
100
AcDbXrecord
280
     1
102
RTVSPost2010Prop28
280
     0
102
RTVSPost2010PropOp28
 70
     1
102
RTVSPost2010Prop29
280
     1
102
RTVSPost2010PropOp29
 70
     1
102
RTVSPost2010Prop30
280
     1
102
RTVSPost2010PropOp30
 70
     1
102
RTVSPost2010Prop31
280
     0
102
RTVSPost2010PropOp31
 70
     1
102
RTVSPost2010Prop32
280
     0
102
RTVSPost2010PropOp32
 70
     1
102
RTVSPost2010Prop33
280
     0
102
RTVSPost2010PropOp33
 70
     1
102
RTVSPost2010Prop34
280
     0
102
RTVSPost2010PropOp34
 70
     1
102
RTVSPost2010Prop35
280
     0
102
RTVSPost2010PropOp35
 70
     1
102
RTVSPost2010Prop36
280
     0
102
RTVSPost2010PropOp36
 70
     1
102
RTVSPost2010Prop37
 90
       50
102
RTVSPost2010PropOp37
 70
     1
102
RTVSPost2010Prop38
140
0.0
102
RTVSPost2010PropOp38
 70
     1
102
RTVSPost2010Prop39
140
1.0
102
RTVSPost2010PropOp39
 70
     1
102
RTVSPost2010Prop40
 90
        0
102
RTVSPost2010PropOp40
 70
     1
102
RTVSPost2010Prop41ColorIndex
 90
       18
102
RTVSPost2010Prop41ColorRGB
 90
        0
102
RTVSPost2010PropOp41
 70
     1
102
RTVSPost2010Prop42
 90
       50
102
RTVSPost2010PropOp42
 70
     1
102
RTVSPost2010Prop43
 90
        3
102
RTVSPost2010PropOp43
 70
     1
102
RTVSPost2010Prop44ColorIndex
 90
        5
102
RTVSPost2010Prop44ColorRGB
 90
      255
102
RTVSPost2010PropOp44
 70
     1
102
RTVSPost2010Prop45
280
     0
102
RTVSPost2010PropOp45
 70
     1
102
RTVSPost2010Prop46
 90
       50
102
RTVSPost2010PropOp46
 70
     1
102
RTVSPost2010Prop47
 90
       50
102
RTVSPost2010PropOp47
 70
     1
102
RTVSPost2010Prop48
 90
       50
102
RTVSPost2010PropOp48
 70
     1
102
RTVSPost2010Prop49
280
     0
102
RTVSPost2010PropOp49
 70
     1
102
RTVSPost2010Prop50
 90
       50
102
RTVSPost2010PropOp50
 70
     1
102
RTVSPost2010Prop51ColorIndex
 90
      256
102
RTVSPost2010Prop51ColorRGB
 90
-16777216
102
RTVSPost2010PropOp51
 70
     0
102
RTVSPost2010Prop52
140
1.0
102
RTVSPost2010PropOp52
 70
     0
102
RTVSPost2010Prop53
 90
        2
102
RTVSPost2010PropOp53
 70
     1
102
RTVSPost2010Prop54
  1
strokes_ogs.tif
102
RTVSPost2010PropOp54
 70
     1
102
RTVSPost2010Prop55
280
     0
102
RTVSPost2010PropOp55
 70
     1
102
RTVSPost2010Prop56
140
1.0
102
RTVSPost2010PropOp56
 70
     1
102
RTVSPost2010Prop57
140
1.0
102
RTVSPost2010PropOp57
 70
     1
  0
XRECORD
  5
410
102
{ACAD_REACTORS
330
40F
102
}
330
40F
100
AcDbXrecord
280
     1
102
RTVSPost2010Prop28
280
     0
102
RTVSPost2010PropOp28
 70
     1
102
RTVSPost2010Prop29
280
     1
102
RTVSPost2010PropOp29
 70
     1
102
RTVSPost2010Prop30
280
     1
102
RTVSPost2010PropOp30
 70
     1
102
RTVSPost2010Prop31
280
     0
102
RTVSPost2010PropOp31
 70
     1
102
RTVSPost2010Prop32
280
     0
102
RTVSPost2010PropOp32
 70
     1
102
RTVSPost2010Prop33
280
     0
102
RTVSPost2010PropOp33
 70
     1
102
RTVSPost2010Prop34
280
     0
102
RTVSPost2010PropOp34
 70
     1
102
RTVSPost2010Prop35
280
     0
102
RTVSPost2010PropOp35
 70
     1
102
RTVSPost2010Prop36
280
     0
102
RTVSPost2010PropOp36
 70
     1
102
RTVSPost2010Prop37
 90
       50
102
RTVSPost2010PropOp37
 70
     1
102
RTVSPost2010Prop38
140
0.0
102
RTVSPost2010PropOp38
 70
     1
102
RTVSPost2010Prop39
140
1.0
102
RTVSPost2010PropOp39
 70
     1
102
RTVSPost2010Prop40
 90
        0
102
RTVSPost2010PropOp40
 70
     1
102
RTVSPost2010Prop41ColorIndex
 90
       18
102
RTVSPost2010Prop41ColorRGB
 90
        0
102
RTVSPost2010PropOp41
 70
     1
102
RTVSPost2010Prop42
 90
       50
102
RTVSPost2010PropOp42
 70
     1
102
RTVSPost2010Prop43
 90
        3
102
RTVSPost2010PropOp43
 70
     1
102
RTVSPost2010Prop44ColorIndex
 90
        5
102
RTVSPost2010Prop44ColorRGB
 90
      255
102
RTVSPost2010PropOp44
 70
     1
102
RTVSPost2010Prop45
280
     0
102
RTVSPost2010PropOp45
 70
     1
102
RTVSPost2010Prop46
 90
       50
102
RTVSPost2010PropOp46
 70
     1
102
RTVSPost2010Prop47
 90
       50
102
RTVSPost2010PropOp47
 70
     1
102
RTVSPost2010Prop48
 90
       50
102
RTVSPost2010PropOp48
 70
     1
102
RTVSPost2010Prop49
280
     0
102
RTVSPost2010PropOp49
 70
     1
102
RTVSPost2010Prop50
 90
       50
102
RTVSPost2010PropOp50
 70
     1
102
RTVSPost2010Prop51ColorIndex
 90
      256
102
RTVSPost2010Prop51ColorRGB
 90
-16777216
102
RTVSPost2010PropOp51
 70
     0
102
RTVSPost2010Prop52
140
1.0
102
RTVSPost2010PropOp52
 70
     0
102
RTVSPost2010Prop53
 90
        2
102
RTVSPost2010PropOp53
 70
     1
102
RTVSPost2010Prop54
  1
strokes_ogs.tif
102
RTVSPost2010PropOp54
 70
     1
102
RTVSPost2010Prop55
280
     0
102
RTVSPost2010PropOp55
 70
     1
102
RTVSPost2010Prop56
140
1.0
102
RTVSPost2010PropOp56
 70
     1
102
RTVSPost2010Prop57
140
1.0
102
RTVSPost2010PropOp57
 70
     1
  0
XRECORD
  5
406
102
{ACAD_REACTORS
330
405
102
}
330
405
100
AcDbXrecord
280
     1
102
RTVSPost2010Prop28
280
     0
102
RTVSPost2010PropOp28
 70
     1
102
RTVSPost2010Prop29
280
     1
102
RTVSPost2010PropOp29
 70
     1
102
RTVSPost2010Prop30
280
     1
102
RTVSPost2010PropOp30
 70
     1
102
RTVSPost2010Prop31
280
     0
102
RTVSPost2010PropOp31
 70
     1
102
RTVSPost2010Prop32
280
     0
102
RTVSPost2010PropOp32
 70
     1
102
RTVSPost2010Prop33
280
     0
102
RTVSPost2010PropOp33
 70
     1
102
RTVSPost2010Prop34
280
     0
102
RTVSPost2010PropOp34
 70
     1
102
RTVSPost2010Prop35
280
     0
102
RTVSPost2010PropOp35
 70
     1
102
RTVSPost2010Prop36
280
     0
102
RTVSPost2010PropOp36
 70
     1
102
RTVSPost2010Prop37
 90
       50
102
RTVSPost2010PropOp37
 70
     1
102
RTVSPost2010Prop38
140
0.0
102
RTVSPost2010PropOp38
 70
     1
102
RTVSPost2010Prop39
140
1.0
102
RTVSPost2010PropOp39
 70
     1
102
RTVSPost2010Prop40
 90
        0
102
RTVSPost2010PropOp40
 70
     1
102
RTVSPost2010Prop41ColorIndex
 90
       18
102
RTVSPost2010Prop41ColorRGB
 90
        0
102
RTVSPost2010PropOp41
 70
     1
102
RTVSPost2010Prop42
 90
       50
102
RTVSPost2010PropOp42
 70
     1
102
RTVSPost2010Prop43
 90
        3
102
RTVSPost2010PropOp43
 70
     1
102
RTVSPost2010Prop44ColorIndex
 90
        5
102
RTVSPost2010Prop44ColorRGB
 90
      255
102
RTVSPost2010PropOp44
 70
     1
102
RTVSPost2010Prop45
280
     0
102
RTVSPost2010PropOp45
 70
     1
102
RTVSPost2010Prop46
 90
       50
102
RTVSPost2010PropOp46
 70
     1
102
RTVSPost2010Prop47
 90
       50
102
RTVSPost2010PropOp47
 70
     1
102
RTVSPost2010Prop48
 90
       50
102
RTVSPost2010PropOp48
 70
     1
102
RTVSPost2010Prop49
280
     0
102
RTVSPost2010PropOp49
 70
     1
102
RTVSPost2010Prop50
 90
       50
102
RTVSPost2010PropOp50
 70
     1
102
RTVSPost2010Prop51ColorIndex
 90
      256
102
RTVSPost2010Prop51ColorRGB
 90
-16777216
102
RTVSPost2010PropOp51
 70
     0
102
RTVSPost2010Prop52
140
1.0
102
RTVSPost2010PropOp52
 70
     0
102
RTVSPost2010Prop53
 90
        2
102
RTVSPost2010PropOp53
 70
     1
102
RTVSPost2010Prop54
  1
strokes_ogs.tif
102
RTVSPost2010PropOp54
 70
     1
102
RTVSPost2010Prop55
280
     0
102
RTVSPost2010PropOp55
 70
     1
102
RTVSPost2010Prop56
140
1.0
102
RTVSPost2010PropOp56
 70
     1
102
RTVSPost2010Prop57
140
1.0
102
RTVSPost2010PropOp57
 70
     1
  0
XRECORD
  5
3FA
102
{ACAD_REACTORS
330
3F9
102
}
330
3F9
100
AcDbXrecord
280
     1
102
RTVSPost2010Prop28
280
     0
102
RTVSPost2010PropOp28
 70
     1
102
RTVSPost2010Prop29
280
     1
102
RTVSPost2010PropOp29
 70
     1
102
RTVSPost2010Prop30
280
     1
102
RTVSPost2010PropOp30
 70
     1
102
RTVSPost2010Prop31
280
     0
102
RTVSPost2010PropOp31
 70
     1
102
RTVSPost2010Prop32
280
     0
102
RTVSPost2010PropOp32
 70
     1
102
RTVSPost2010Prop33
280
     0
102
RTVSPost2010PropOp33
 70
     1
102
RTVSPost2010Prop34
280
     0
102
RTVSPost2010PropOp34
 70
     1
102
RTVSPost2010Prop35
280
     0
102
RTVSPost2010PropOp35
 70
     1
102
RTVSPost2010Prop36
280
     0
102
RTVSPost2010PropOp36
 70
     1
102
RTVSPost2010Prop37
 90
       50
102
RTVSPost2010PropOp37
 70
     1
102
RTVSPost2010Prop38
140
0.0
102
RTVSPost2010PropOp38
 70
     1
102
RTVSPost2010Prop39
140
1.0
102
RTVSPost2010PropOp39
 70
     1
102
RTVSPost2010Prop40
 90
        0
102
RTVSPost2010PropOp40
 70
     1
102
RTVSPost2010Prop41ColorIndex
 90
       18
102
RTVSPost2010Prop41ColorRGB
 90
        0
102
RTVSPost2010PropOp41
 70
     1
102
RTVSPost2010Prop42
 90
       50
102
RTVSPost2010PropOp42
 70
     1
102
RTVSPost2010Prop43
 90
        3
102
RTVSPost2010PropOp43
 70
     1
102
RTVSPost2010Prop44ColorIndex
 90
        5
102
RTVSPost2010Prop44ColorRGB
 90
      255
102
RTVSPost2010PropOp44
 70
     1
102
RTVSPost2010Prop45
280
     0
102
RTVSPost2010PropOp45
 70
     1
102
RTVSPost2010Prop46
 90
       50
102
RTVSPost2010PropOp46
 70
     1
102
RTVSPost2010Prop47
 90
       50
102
RTVSPost2010PropOp47
 70
     1
102
RTVSPost2010Prop48
 90
       50
102
RTVSPost2010PropOp48
 70
     1
102
RTVSPost2010Prop49
280
     0
102
RTVSPost2010PropOp49
 70
     1
102
RTVSPost2010Prop50
 90
       50
102
RTVSPost2010PropOp50
 70
     1
102
RTVSPost2010Prop51ColorIndex
 90
      256
102
RTVSPost2010Prop51ColorRGB
 90
-16777216
102
RTVSPost2010PropOp51
 70
     0
102
RTVSPost2010Prop52
140
1.0
102
RTVSPost2010PropOp52
 70
     0
102
RTVSPost2010Prop53
 90
        2
102
RTVSPost2010PropOp53
 70
     1
102
RTVSPost2010Prop54
  1
strokes_ogs.tif
102
RTVSPost2010PropOp54
 70
     1
102
RTVSPost2010Prop55
280
     0
102
RTVSPost2010PropOp55
 70
     1
102
RTVSPost2010Prop56
140
1.0
102
RTVSPost2010PropOp56
 70
     1
102
RTVSPost2010Prop57
140
1.0
102
RTVSPost2010PropOp57
 70
     1
  0
XRECORD
  5
412
102
{ACAD_REACTORS
330
411
102
}
330
411
100
AcDbXrecord
280
     1
102
RTVSPost2010Prop28
280
     0
102
RTVSPost2010PropOp28
 70
     1
102
RTVSPost2010Prop29
280
     1
102
RTVSPost2010PropOp29
 70
     1
102
RTVSPost2010Prop30
280
     1
102
RTVSPost2010PropOp30
 70
     1
102
RTVSPost2010Prop31
280
     0
102
RTVSPost2010PropOp31
 70
     1
102
RTVSPost2010Prop32
280
     0
102
RTVSPost2010PropOp32
 70
     1
102
RTVSPost2010Prop33
280
     0
102
RTVSPost2010PropOp33
 70
     1
102
RTVSPost2010Prop34
280
     0
102
RTVSPost2010PropOp34
 70
     1
102
RTVSPost2010Prop35
280
     0
102
RTVSPost2010PropOp35
 70
     1
102
RTVSPost2010Prop36
280
     0
102
RTVSPost2010PropOp36
 70
     1
102
RTVSPost2010Prop37
 90
       50
102
RTVSPost2010PropOp37
 70
     1
102
RTVSPost2010Prop38
140
0.0
102
RTVSPost2010PropOp38
 70
     1
102
RTVSPost2010Prop39
140
1.0
102
RTVSPost2010PropOp39
 70
     1
102
RTVSPost2010Prop40
 90
        0
102
RTVSPost2010PropOp40
 70
     1
102
RTVSPost2010Prop41ColorIndex
 90
       18
102
RTVSPost2010Prop41ColorRGB
 90
        0
102
RTVSPost2010PropOp41
 70
     1
102
RTVSPost2010Prop42
 90
       50
102
RTVSPost2010PropOp42
 70
     1
102
RTVSPost2010Prop43
 90
        3
102
RTVSPost2010PropOp43
 70
     1
102
RTVSPost2010Prop44ColorIndex
 90
        5
102
RTVSPost2010Prop44ColorRGB
 90
      255
102
RTVSPost2010PropOp44
 70
     1
102
RTVSPost2010Prop45
280
     0
102
RTVSPost2010PropOp45
 70
     1
102
RTVSPost2010Prop46
 90
       50
102
RTVSPost2010PropOp46
 70
     1
102
RTVSPost2010Prop47
 90
       50
102
RTVSPost2010PropOp47
 70
     1
102
RTVSPost2010Prop48
 90
       50
102
RTVSPost2010PropOp48
 70
     1
102
RTVSPost2010Prop49
280
     0
102
RTVSPost2010PropOp49
 70
     1
102
RTVSPost2010Prop50
 90
       50
102
RTVSPost2010PropOp50
 70
     1
102
RTVSPost2010Prop51ColorIndex
 90
      256
102
RTVSPost2010Prop51ColorRGB
 90
-16777216
102
RTVSPost2010PropOp51
 70
     0
102
RTVSPost2010Prop52
140
1.0
102
RTVSPost2010PropOp52
 70
     0
102
RTVSPost2010Prop53
 90
        2
102
RTVSPost2010PropOp53
 70
     1
102
RTVSPost2010Prop54
  1
strokes_ogs.tif
102
RTVSPost2010PropOp54
 70
     1
102
RTVSPost2010Prop55
280
     0
102
RTVSPost2010PropOp55
 70
     1
102
RTVSPost2010Prop56
140
1.0
102
RTVSPost2010PropOp56
 70
     1
102
RTVSPost2010Prop57
140
1.0
102
RTVSPost2010PropOp57
 70
     1
  0
ENDSEC
  0
EOF
